Kosas

Solo disponible en BuenasTareas
  • Páginas : 5 (1193 palabras )
  • Descarga(s) : 0
  • Publicado : 17 de octubre de 2010
Leer documento completo
Vista previa del texto
Intro.
Am C E E7 x2
-------------------------------------------------------------------------

Am C E E7
e|---------0-------------------------0------|
B|-------1---1-----1-----------0-3-----3----|G|-----2-------0-------------1-----1-----1--| x2
D|---2-----------2---------2----------------|
A|-0-----------------0-1-2------------------|
E|------------------------------------------|

Eres lo que mas quiero en este mundo eso
Am C E E7e|---------0-------------------------0------|
B|-------1---1-----1-----------0-3-----3----|
G|-----2-------0-------------1-----1-----1--|
D|---2-----------2---------2----------------|
A|-0-----------------0-1-2------------------|
E|------------------------------------------|

Eres mipensamiento más profundo también
Am C E E7
e|---------0-------------------------0------|
B|-------1---1-----1-----------0-3-----3----|
G|-----2-------0-------------1-----1-----1--|
D|---2-----------2---------2----------------|
A|-0-----------------0-1-2------------------|E|------------------------------------------|

Eres tan solo dime lo que hago aquí me
Dm E E7
e|-------1--------3-0----------------0------|
B|-----3---3---3-------------0---3-----3----|
G|---2-------2-------------1---1---1-----1--|D|-0---------------------2------------------|
A|---------------------2--------------------|
E|------------------------------------------|

Tienes
Am C E E7
e|---------0-------------------------0------|B|-------1---1-----1-----------0-3-----3----|
G|-----2-------0-------------1-----1-----1--|
D|---2-----------2---------2----------------|
A|-0-----------------0-1-2------------------|
E|------------------------------------------|

Eres cuando despierto lo primero eso
Am C EE7
e|---------0-------------------------0------|
B|-------1---1-----1-----------0-3-----3----|
G|-----2-------0-------------1-----1-----1--|
D|---2-----------2---------2----------------|
A|-0-----------------0-1-2------------------|
E|------------------------------------------|Eres lo que a mi vida le hace falta si no
Am C E E7
e|---------0-------------------------0------|
B|-------1---1-----1-----------0-3-----3----|
G|-----2-------0-------------1-----1-----1--|
D|---2-----------2---------2----------------|A|-0-----------------0-1-2------------------|
E|------------------------------------------|

vienes lo único precioso que en mi mente habita
Dm E E7
e|-------1--------3-0----------------0------|
B|-----3---3---3-------------0---3-----3----|...
tracking img