Lo mas lindo

Solo disponible en BuenasTareas
  • Páginas : 3 (556 palabras )
  • Descarga(s) : 0
  • Publicado : 16 de mayo de 2011
Leer documento completo
Vista previa del texto
LO MÁS LINDO

INTRO:
-----------------------------------------------------------------------
---------0--------------0---------------0-------------0------------0----------2----2--------2-----2---------2----2--------2----2-------2----2-
----0---------0---0----------0----0---------0---0---------0---0-------0
-------------------------------------------------------------------------3-------------3---------------1-------------1-------------0----------

------------------------------0-------------------------------------------------0-------------1H2P1-----1-------------------------------------
-------2---2--------0--------------0-----------------------------------
-----0-------0----2--------------------------------------------------------------------2------------------------------------------------------
--0--------------------------------------------------------------------

PRIMERA PARTE:-----------------------------------------------------------------------
---------0--------------0---------------0-------------0------------0---
-------2----2--------2-----2---------2----2--------2----2-------2----2-----0---------0---0----------0----0---------0---0---------0---0-------0
-----------------------------------------------------------------------
--3-------------3---------------1-------------1-------------0----------
LO MÁS LINDO DEL MARES CUANDO POR COMPLETO LO MOJA LA
-----------------------------------------------------------------------
---------0-------------1-----------1------------------------------------------2---2--------0----0-------0---0---------------------------------
-----0-------0----2--------2---2-------2-----------------------------------------------2------------2-----------------------------------------
--0--------------------------------------------------------------------
HERMOSURA DE TU PELO

-----------------------------------------------------------------------...
tracking img