Los de abajo

Solo disponible en BuenasTareas
  • Páginas : 7 (1509 palabras )
  • Descarga(s) : 0
  • Publicado : 30 de noviembre de 2010
Leer documento completo
Vista previa del texto
[ guitarra I]
E ----------------+
B -----0----------+ [X2 VECES]
G ---------2---1--+
D ---2---2---2---2+
A -0--------------+
E ----------------+

E ----------------+
B -----0----------+ [X2 VECES]
G ---------2---1--+
D ---2---2---2---2+
A ----------------+
E -0--------------+

[ guitarra I]
E ----------------+
B -----0----------+ [X2 VECES]
G ---------2---1--+
D---2---2---2---2+
A -0--------------+
E ----------------+

E ----------------+
B -----0----------+ [X2 VECES]
G ---------2---1--+
D ---2---2---2---2+
A ----------------+
E -0--------------+
E -----------------+
B------0-----------+ [X2 VECES]
G ----------2---1--+
D ----2---2---2---2+
A -----------------+
E -2---------------+

E ----------------+
B -----0----------+ [X2 VECES]
G---------2---1--+
D ---2---2---2---2+
A ----------------+
E -0--------------+
A [Guitarra II]
E ----------------+
B -----0----------+ [X2 VECES]
G ---------2---1--+
D ---2---2---2---2+
A -0--------------+
E ----------------+
E
E ----------------+
B -----0----------+ [X2 VECES]
G ---------2---1--+
D ---2---2---2---2+
A ----------------+
E -0--------------+
F#m
E-----------------+
B------0-----------+ [X2 VECES]
G ----------2---1--+
D ---2---2----2---2+
A -----------------+
E -2---------------+

E
E ----------------+
B -----0----------+ [X2 VECES]
G ---------2---1--+
D ---2---2---2---2+
A ----------------+
E -0--------------+

***NOTA:: ES CONVENIENTE QUE EN ALGUNAS PARTES
PONGAS NOTAS TRANSPORTADAS******
[es decir si pones un Miponlo con Cejilla]

A
Me preguntas que si yo siento algo por
E
ti, si algun dia de estos llegaré a
F#m E
sentir, lo que sientes tu por mi...,
A
Sin pensar, sin decir,
E
juras que me amas mas que yo ati
F#m
No sabes tu, lo que siento yo,
E
tomas la decisión de pensar que no..
A5E
, y eske siento algo por ti y esque odio mentir, pero
F#m E A5
tengo que decir lo que siento por tii, para que puedas
E F#m
saber lo que siento por ti y esque odio mentir ,
E
pero tengo que decir lo que siento

A E F#m
decirte te amo es decir una estrella cuando lo quesiento
E A E
es la galaxia entera, podria jurar que mi vida no es nada,
F#m E A
cuando estoi contigo mi alma se agranda, quisiera juntar
E F#m E
una estrella y la luna para ver si de lejos se forma La
A E
cuna, en la cual meseré tuspupilas cafes
F#m
y dormirán esos recuerdos, esos recuerdos, esos recuerdos,
E
esos recuerdos esos recuerdos esos recuerdos

que quedaron ayer.
E ----------------+
B -----0----------+ [X2 VECES]
G ---------2---1--+
D ---2---2---2---2+
A -0--------------+
E ----------------+

E ----------------+
B -----0----------+ [X2 VECES]
G ---------2---1--+
D---2---2---2---2+
A ----------------+
E -0--------------+
E -----------------+
B------0-----------+ [X2 VECES]
G ----------2---1--+
D ----2---2---2---2+
A -----------------+
E -2---------------+

E ----------------+
B -----0----------+ [X2 VECES]
G ---------2---1--+
D ---2---2---2---2+
A ----------------+
E -0--------------+

A E
Decirte teamo es decir una estrella cuando lo que siento
F#m
es la galaxia entera, podria jurar que mi vida no es nada,
E
cuando estoy contigo mi alma se agranda,

A E F#m
Decirte te amo es decir una estrella cuando lo que siento
E E A E
es la galaxia entera, podria jurar que mi vida no...
tracking img