Maestro

Solo disponible en BuenasTareas
  • Páginas : 18 (4334 palabras )
  • Descarga(s) : 0
  • Publicado : 29 de enero de 2012
Leer documento completo
Vista previa del texto
Stairway to heaven
Led Zeppeling


E-------5-7-----7-|-8-----8-2-----2-|-0---------0-----|-----------------|
B-----5-----5-----|---5-------3-----|---1---1-----1---|-0-1-1-----------|
G---5---------5---|-----5-------2---|-----2---------2-|-0-2-2-----------|D-7-------6-------|-5-------4-------|-3---------------|-----------------|
A-----------------|-----------------|-----------------|-2-0-0---0--/8-7-|
E-----------------|-----------------|-----------------|-----------------|

E---------7-----7-|-8-----8-2-----2-|-0---------0-----|-----------------|B-------5---5-----|---5-------3-----|---1---1-----1---|-0-1-1-----------|
G-----5-------5---|-----5-------2---|-----2---------2-|-0-2-2-----------|
D---7-----6-------|-5-------4-------|-3---------------|-----------------|
A-0---------------|-----------------|-----------------|-2-0-0-------0-2-|
E-----------------|-----------------|-----------------|-----------------|E-------0-2-----2-|-0-----0----------|---------3-----3-|
B-----------3-----|---1-----0h1------|-1-----1---0-----|
G-----0-------2---|-----2-------2----|---0---------0---|
D---2-----0-------|-3----------------|-----2-----------|
A-3---------------|---------0----0-2-|-3---------------|E-----------------|------------------|---------3-------|
Intro end.
E---------2-----2-|-0-----0----------|---------------2-|-0-0-0-----------|
B-------1---3-----|---1-----0-1------|-------1-----3---|-1-1-1-----------|G-----0-------2---|-----2-------2----|-----0-----2-----|-2-2-2-----------|
D---2-----0-------|-3----------------|---2-----0-------|-3-3-3-----------|
A-3---------------|---------0----0-2-|-3---------------|-----------------|
E-----------------|------------------|-----------------|-----------------|
Theres aE-------5-7-----7-|-8-----8-2-----2-|-0---------0-----|-----------------|
B-----5-----5-----|---5-------3-----|---1---1-----1---|-0-1-1-----------|
G---5---------5---|-----5-------2---|-----2---------2-|-0-2-2-----------|
D-7-------6-------|-5-------4-------|-3---------------|-----------------|A-----------------|-----------------|-----------------|-2-0-0-----------|
E-----------------|-----------------|-----------------|-----------------|
lady whos glitter buying a heaven When she

E-------5-7-----7-|-8-----8-2-----2-|-0---------0-----|-----------------|B-----5-----5-----|---5-------3-----|---1---1-----1---|-0-1-1-----------|
G---5---------5---|-----5-------2---|-----2---------2-|-0-2-2-----------|
D-7-------6-------|-5-------4-------|-3---------------|-----------------|
A-----------------|-----------------|-----------------|-2-0-0-------0-2-|E-----------------|-----------------|-----------------|-----------------|
gets there stores are ord she can get came for

E---------2-----2-|-0-----0---------------|---------3-----3-|-3^2-2-2-------|
B-------1---3-----|---1----1--0-1---------|-1---1-1---0-----|-3---3-3-------|
G-----0-------2---|-----2---------2-------|---0-0-------0---|-2-----2-------|...
tracking img