Master of pupets

Solo disponible en BuenasTareas
  • Páginas : 9 (2005 palabras )
  • Descarga(s) : 0
  • Publicado : 5 de febrero de 2012
Leer documento completo
Vista previa del texto
*Let last chord ring*
|-----------------|
|-----------------|
|-9---7---6---5---|
|-9---7---6---5---|
|-7---5---4---3---|
|-0---------------|

*4*Play Four Times*4*
|--------------------------------------------------------------------|
|--------------------------------------------------------------------|
|--------------------7---6---5---------------------------------------||--------------------7---6---5---------------------------------------|
|-----7-----6--------5---4---3---------------------------------------|
|-0-0---0-0---0-0---------------------0-0-7-0-0-6-0-0-5-0-4-0-3-0-2--|

*2*Play Two Times*2*
|--------------------------------------------------------------------|
|--------------------------------------------------------------------||--------------------------------------------------------------------|
|--------------------------------------------------------------------|
|-----2-----3-----4-----3-----2-2-----2-----3------5\4---5\4---5\4---|
|-0-1---0-1---0-1---0-1---0-1-----0-1---0-1---0-0--3\2-0-3\2-0-3\2---|

|--------------------------------------------------------------------||--------------------------------------------------------------------|
|-------------------------------------------------------------4------|
|-------------------------------------------------------------4------|
|-----2-----3-----4-----3-----2-2-----2-----3-----4-----3-----2------|
|-0-1---0-1---0-1---0-1---0-1-----0-1---0-1---0-1---0-1---0-1--------|

|--------------------------------------------------------------------||--------------------------------------------------------------------|
|--------------------------------------------------------------------|
|--------------------------------------------------------------------|
|-----2-----3-----4-----3-----2-2-----2-----3------5\4---5\4---5\4---|
|-0-1---0-1---0-1---0-1---0-1-----0-1---0-1---0-0--3\2-0-3\2-0-3\2---||--------------------------------------------------------------------|
|--------------------------------------------------------------------|
|-------------------------------------------------------------4------|
|-------------------------------------------------------------4------|
|-----2-----3-----4-----3-----2-2-----2-----3-----4-----3-----2------||-0-1---0-1---0-1---0-1---0-1-----0-1---0-1---0-1---0-1---0-1--------|

|--------------------------------------------------------------------|
|--------------------------------------------------------------------|
|--------------------------------------------------------------------|
|--------------------------------------------------------------------|
|-----2-----3-----4-----3-----2-2-----2-----3------5\4---5\4---5\4---||-0-1---0-1---0-1---0-1---0-1-----0-1---0-1---0-0--3\2-0-3\2-0-3\2---|

|--------------------------------------------------------------------|
|--------------------------------------------------------------------|
|--------------------------------------------------------------------|
|------------------2------8------8------8------8------8v-------------||-5\4---5\4---5\4--2----7------7------7------7------7----------------|
|-3\2-0-3\2-0-3\2--0--0------0------0------0------0------------------|

*6*Play Six Times*6*
|--------------------------------------------------------------------|
|--------------------------------------------------------------------|
|--------------------------------------------------------------------||--------------------------------------------------------------------|
|-----------------5/7--8\7--5/7------------------5/7--5/7------------|
|-0-0-0-0-0-0-0-0-3/5--6\5--3/5--0-0-0-0-0-0-0-0-3/5--3/5------------|

*2*Play Two Times*2*
|--------------------------------------------------------------------|
|--------------------------------------------------------------------|
|--------------------------------------------------------------------|...
tracking img