Metalica

Solo disponible en BuenasTareas
  • Páginas : 16 (3916 palabras )
  • Descarga(s) : 0
  • Publicado : 24 de marzo de 2011
Leer documento completo
Vista previa del texto
--0--0--0--0--0--0--0--0--|--0--0--0--------------|--0--0--0--0--0--0--0--0--|
--------------------------|-----------------------|--------------------------| Bass Gtr.

G||-------|-------|-------|-------|-------|-------|-------|
D||-------|-------|-------|-------|-------|-------|-------|
A||-------|-------|-------|-------|-------|-------|-------|E||-------|-------|-------|-------|-------|-------|-------|
B||-------|-------|-------|-------|-------|-------|-------|

Q. E E E E E W W
------------------------|-------------------|-------------------|-------|
------------------------|-------------------|-------------------|-------|
------------------------|-------------------|-------------------|-------|---------5-----5-----5--|--5----------------|--L----------------|-------|
------------------------|-------------------|-------------------|-------|

Q. E E E E E W W
------------------------|-------------------|-------------------|-------|
------------------------|-------------------|-------------------|-------|
------------------------|-------------------|-------------------|-------|---------5-----5-----5--|--5----------------|--L----------------|-------|
------------------------|-------------------|-------------------|-------|

Q. E E E E E W W
------------------------|-------------------|-------------------|-----|
------------------------|-------------------|-------------------|-----|------------------------|-------------------|-------------------|-----|
---------5-----5-----0--|--5----------------|--L----------------|-----|
------------------------|-------------------|-------------------|-----|

Q. E E E E E W W
------------------------|-------------------|-------------------|
------------------------|-------------------|-------------------|
------------------------|-------------------|-------------------|---------5-----5-----5--|--5----------------|--L----------------|
------------------------|-------------------|-------------------|

|----3----| |----3----|
Q. E E E E E Q Q Q Q Q Q W
------------------------|--------------------------------|-------------------|------------------------|--------------------------------|-------------------|
------------------------|--3-----------------------------|-------------------|
---------5-----5-----5--|-------0----1----0----1----3----|--5----------------|
------------------------|--------------------------------|-------------------|

W W W W-------------------|-------------------|-------------------|-------------------|
-------------------|-------------------|-------------------|-------------------|
-------------------|-------------------|-------------------|-------------------|
--L----------------|--L----------------|--L----------------|--5----------------|
-------------------|-------------------|-------------------|-------------------|

W W H H-------------------|-------------------|--------------------|
-------------------|-------------------|--------------------|
-------------------|-------------------|--3--------5--------|
--3----------------|--0----------------|--------------------|
-------------------|-------------------|--------------------|

Q Q E E E E Q Q E E E E Q Q E E E E------------------------|------------------------|------------------------|
------------------------|------------------------|------------------------|
------------------------|------------------------|------------------------|
--5----5----5--5-----5--|--3----3----3--3-----3--|--0----0----0--0-----0--|
------------------------|------------------------|------------------------|

Q Q E Q E Q...
tracking img