No es como yo

Solo disponible en BuenasTareas
  • Páginas : 4 (977 palabras )
  • Descarga(s) : 4
  • Publicado : 23 de mayo de 2010
Leer documento completo
Vista previa del texto
No es como yo
Intro

Guit. I

E-----------------------------------------B----10-9-10-12-12p10-9h10-9-9-10---------
G--9------------------------------9/11----
D-----------------------------------------E-----------------------------------------
B--12-12p10-9h10-9-9-10-------------------
G-----------------------9/11-9h11/7/9-----
D-----------------------------------------E-----------------------------------------
B-----10----------------------------------
G--9-9----9-7/9—7/6/7-6-4h6p4-2-2/4-------D-----------------------------------------

Guit. II

A(add2) E/G# F#m7(add4) EE-----------------------------------------
B--------2---------5--------0----------0--
G------4---------4--------2----------1----D----2---------2--------2----------2------
A--0--------------------------------------
E------------4--------2----------0--------

D C#m7 Bm7A/C#
E--------2--------------------------------
B------3----------5----------3----------2-
G----2----------4----------2----------2---D--0----------6----------0----------2-----
A-----------4----------2----------4-------
E-----------------------------------------Esus4 E
E----------0------------------------------
B--------0---0----------------------------
G------2-------2—-1-----------------------...
tracking img