Plan 4- la jaula

Solo disponible en BuenasTareas
  • Páginas : 4 (820 palabras )
  • Descarga(s) : 4
  • Publicado : 26 de mayo de 2010
Leer documento completo
Vista previa del texto
intro
|------------|----------------|------------|---------------|
|------------|----------------|------------|-----3---------|
|---2-----2--|------0---------|------------|-------5-------|x4|-----0------|----3---3-------|----7-----7-|---5-----5-----|
|-------0---0|1-----------1-0-|------5-----|-3-------------|
|-0----------|----------------|-5------5---|-----------3-2-||-----------|-----------|-----------|-------------|
|-----------|-----------|-----------|-------------|
|-----------|-----------|-----------|-------------|x4|-----------|-3-3-3-3-3-|-----------|-5-5-5-5-----|
|-0-0-0-0-0-|-1-1-1-1-1-|-5-5-5-5-5-|-3-3-3-3-----|
|-0-0-0-0-0-|-----------|-5-5-5-5-5-|---------3-2-|

verso
|----------|----------------|----------|----------------||----------|----------------|----------|----------------|
|----------|-------2--------|----------|--------------2-|x2
|----------|-0-3-0----3-0-3-|----------|-0-3-0-3--0-----||-0-0-0----|----------------|-0-0-0----|------------3---|
|-0-0-0----|----------------|-0-0-0----|----------------|

|----------|
|----------|
|----------|
|----------|
|-0-0-0----|
|-0-0-0----||-------------|----------------|-------------|----------------|
|-------------|----------------|-------------|----------------|
|-------------|-------2--------|-------------|--------------2-|x2|-------------|-0-3-0----3-0-3-|-------------|-0-3-0-3--0-----|
|-0-0-0-0-0-0-|----------------|-0-0-0-0-0-0-|------------3---|
|-0-0-0-0-0-0-|----------------|-0-0-0-0-0-0-|----------------|

pre - Estribillo(recorda la afinacion)
D c# E D D C#
|---------|---------|---------|---------|---------|---------|
|-8--8--8-|-7-7-7-7-|-10-10-10|-8--8--8-|-8--8--8-|-7-7-7-7-||-10-10-10|-9-9-9-9-|-12-12-12|-10-10-10|-10-10-10|-9-9-9-9-|
|-10-10-10|-9-9-9-9-|-12-12-12|-10-10-10|-10-10-10|-9-9-9-9-|
|-8--8--8-|-7-7-7-7-|-10-10-10|-8--8--8-|-8--8--8-|-7-7-7-7-|...
tracking img