Sadness and sorrow lonlonjp tab

Solo disponible en BuenasTareas
  • Páginas : 3 (604 palabras )
  • Descarga(s) : 0
  • Publicado : 9 de febrero de 2012
Leer documento completo
Vista previa del texto
e--2-------0------------------------------------0-5-5-----7-----------------------------|
B------0-------0--------0---3-------3-------------------4---4---7-----------------------|G----0---0---0---0----0---0-----0-------2---5---------4-------4-----4-------------------|
D-----------------------------0---0---2---2---2-----4-------------4---4-----------------|A-------------------------------------------0-------------------------------------------|
E--0----------------2---------------0---------------------------------------------------|

^ ^^
e--0---3-2----------3-2------2p0------0---0-3-5---0------------3-------2-3-5------------|
B--0--------3---0--------0---0---0----3----------------------------3---3-5-7------------|G----0------------0----------0--------0---------0-----2----------2---2-------7----------|
D---------------2-----------------------------------------2----0-------0----------------|A----------------------------------2----------3-----3---3---3---------------------------|
E--0------------0------------0----------------------------------------------------------|

^ ^^
e--7---------5---2----2p0-----0--0-3--5---0------------3--------2-3-5-------------------|
B-------0-------------0---0---3---------------3---1--------3----3-5-7-------------------|G-----0---0----2---2--0-------0---------0---0---0---0----0---0--------7-----------------|
D------------0-----------------------------------------0--------0-----------------------|A---------------------------2---------3-------------------------------------------------|
E--3------------------0-----------------------------------------------------------------|

^ ^^
e--0----3-2------------3-2----0-2-3-5-7-0-3-2--------2p0-------0--------3-5-3-2-----7---|
B--0---------3---0------------------------------3--------0---------0--------0-------8---|...
tracking img