Sedfsdfsd

Solo disponible en BuenasTareas
  • Páginas : 7 (1657 palabras )
  • Descarga(s) : 0
  • Publicado : 29 de octubre de 2010
Leer documento completo
Vista previa del texto
No hay información gráfica sobre los acordes. Estamos trabajando para actualizar esta canción.
----------------------------------------------------------------------------------------------

Gracias a Ekklesia y al Señor
--7-7---5-5---4---2---0------5-5--4-4--2-0-/4---
--9-9---5-5---5---2---0------5-5--5-5--2-0-/5---
--9-9---6-6---4---2---1------6-6--4-4--2-1-/4---------------------------------------------------
--------------------------0---------------------
0-----------------------------------------------

C#m / B / EA

--------0-------0-----0-------
----0----0-----0--4-2-0-------
----1-2---2-------4-2-1-------
--2---4---------------2-------
----------------------2-------
-0----------0---------0-------

E                  A              ECuando nadie me ve, en la intimidad
                    A                  C#m
Donde no puedo hablar, mas que la verdad
                    A      |422422|
Donde no hay apariencias
F#m   |02x22x|             |x24452| B
Donde al descubierto queda mi corazon

E         |x24452| B
Alli, soy sincero
|2xx220|                   C#m      B  A
Alli, mi apariencia de piedad se vaA         |2x2200|             |4x4400|
alli, es tu gracia lo que cuenta
C#m(no G#)       |2x2200| |0x2200|
tu perdon lo que sustenta
               |x24452| B
para estar de pie

*E:|079900|      |x69800|
Y no podria dar la cara
 |xx4200|            |4x4400|
si no fuera porque soy
A        |2x2200|
revestido de la gracia
          |x24452| B
y la justicia del Señor.

*E:|079900|          |x69800|
Si me vieran tal cual soy,           C#m
se enterarian que es Jesús.
B          A           |2x2200|
Lo que han visto reflejado en mi,
  |x24452|   B
tan sólo fue su luz.

*E: |079900|     |x69800|      C#m  B  A
Es por tu gracia y tu perdón,
A                |2x2200|        |x24452|   B
que podemos ser llamados instrumentos de tu amor.
        |4x4400| |x64x4x| C#m  B
Es por tu gracia y tu perdón,A                  |x24452|    B  (E)(progesion |x42x2x| |x64x4x| E)
mi justicia queda lejos de tu perfección.

(alternativa *E: |x76450| |x6444x| C#m B A)

--7-7--5-5-4-2-0-----5-5-4-4--2-0----0----
--9-9--5-5-5-0-0-----5-5-5-5--2-0-4--0----
--9-9--6-6-4-2-1-----6-6-4-4--2-1-4--1----
--------------------4-------------4--2----
0-----------------------------2---2--2----
--------------------2----------------0----

Transc: MiGuel SobreviaCHILE... msobrevia@yahoo.es

----------------------------------------------------------------------------------------------
No hay información gráfica sobre los acordes. Estamos trabajando para actualizar esta canción.
----------------------------------------------------------------------------------------------

Acorde desconocido
        EADGBE
A2/C#   042200

Tono: EIntro: A2/C#-B7-C#m  A2/C#-B7-C#m

A2/C#       B7           E    A2 E
      Espérame por la mañana
A2/C#       B7              C#m
      antes de que salga el sol
      G#m              A
antes que comience el día
        F#m       B
quiero darte mi canción

A2/C#       B7            E     A2 E
      Espérame cuando las aves
A2/C#          B7          C#m
      aun no empiezan a cantar       G#m             A
cuando todo esta en silencio
      F#m            B
yo contigo quiero estar

coro
       E        B7
Espérame luz de mi corazón
   C#m       A            F#m
espérame estrella de la mañana
           B
te quiero ver
       E       B7
Espérame dueño de mi amor
   C#m      A             F#m
espérame serás mi primera cita
       B
ahí estaréA2/C#      B7            E    A2 E
     Espérame desde temprano
A2/C#        B7             C#m
     yo no quiero el día empezar
      G#m           A
sin estar en tu presencia
      F#m              B
sin saber que cerca estas

A2/C#       B7           E    A2 E
      Espérame que necesito
A2/C#      B7         C#m
      tu mirada sobre mi...
tracking img