Senso

Solo disponible en BuenasTareas
  • Páginas : 5 (1181 palabras )
  • Descarga(s) : 0
  • Publicado : 1 de septiembre de 2010
Leer documento completo
Vista previa del texto
Intro Riff 1 (Guitar I)
E|---------------------------------------------------------------------||
B|---------------------------------------------------------------------||
G|--------------7----------------------------------7-------------------||
D|---------9-10--10-9-7--7-10-9-7-------------9-10---10-9--------------||A|-------7------------------------10-9------7-------------9--12-10-9---||
E|---0-0--------------------------------0-0---------------10-14-12-10--||
. (sweep-) . . . . . . . . . . (sweep-) . . . . . .

Intro Riff 2 (Guitar I)E|-------------------------------------------------------------------||
B|-------------------------------------------------------------------||
G|--------------7----------------------------------7-----------------||
D|---------9-10--10-9-7--7-10-9-7-------------9-10---10-9------------||
A|-------7------------------------10-9------7-------------9--12-10/--||E|---0-0--------------------------------0-0---------------10-14-12/--||
. (sweep-) . . . . . . . . . . (sweep-) . . . .

Pre-Verse 1 Guitar II
E|------------------------------------------------------|
B|------------------------------------------------------|G|------------------------------------------------------|
D|-2--------------------------2-------------------------|
A|-2--------------------------2------------9--12-10-9---|
E|-0--------------------------0------------10-14-12-10--|
.|-----------------------------------------------------------||
|-----------------------------------------------------------||
|-----------------------------------------------------------||
|-2--0h2p0h2p0h2p0h2p0h2p0h2p0h2p0h2------------------------||
|-2--------------------------------2------------9--12-10-9--|||-0--------------------------------0------------10-14-12-10-||
.


Pre-Verse 1 Guitar III
E|--------------------------------------------------------------||
B|--------------------------------------------------------------||G|--------7*-------------------------------7*-------------------||
D|---9-10-----10-9-7--7-10-9-7--------9-10----10-9--------------||
A|-----------------------------10-9----------------9--12-10-----||
E|-------------------------------------------------10-14-12-10*-||

Pre-Verse 2 Guitars II & IIIE|---------------------------------------------------------------||
B|---------------------------------------------------------------||
G|---------------------------------------------------------------||
D|---2-2-2--2--4*--2-2-2--2--4*--2-4-5-7-5-4-2*--2-4-5-7-5-4-2*--||
A|---2-2-2--2------2-2-2--2------2-4-5-7-5-4-----2-4-5-7-5-4-----||E|---0-0-0--0------0-0-0--0------0-2-3-5-3-2-----0-2-3-5-3-2-----||

Verse Guitars II & III
E|---------||----------||-------||---------------||
B|---------||----------||-------||---------------||
G|---------||----------||-7-7-7-||---------------||
D|---9-9-9-||-10-10-10-||-x-x-x-||-9--9-9-9-9----||...
tracking img