Tab como dueles en los labios

Solo disponible en BuenasTareas
  • Páginas : 2 (439 palabras )
  • Descarga(s) : 0
  • Publicado : 26 de agosto de 2012
Leer documento completo
Vista previa del texto
|-------------0---|-----------------|
|-3---3---3-------|-3---3---3---1p0-|
|---0---0---0---0-|---2---2---2-----||-----------------|-----------------|
|-----------------|-----------------|
|-3---------------|-2---------------|

Flute:|-------12----|-----------|------------|--------------|-----|
|-15-------15-|------13---|-12---------|-13-12--------|-----|
|-------------|---14------|---------14-|-------14--11-|-12--||-------------|-----------|------------|--------------|-----|
|-------------|-----------|------------|--------------|-----||-------------|-----------|------------|--------------|-----|

Verse 1 & 2:

|-------------0---|-----------------||-3---3---3-------|-3---3---0---1---|
|---0---0---0---0-|---2---2---2---2-|
|-----------------|-----------------|
|-----------------|-----------------||-3---------------|-2---------------|

|-------------0---|-----------------|
|-3---3---3-------|-3---3---3---1---||---0---0---0---0-|---2---2---2---2-|
|-----------------|-----------------|
|-----------------|-----------------|
|-3---------------|-2---------------||-----------------|-----------------|
|-0---0---1---3---|-3---3---1---1---|
|---0---0---0---0-|---2---2---2---2-||-----------------|---------1-------|
|-----------------|-----------------|
|-3---------------|-2---------------|

1.___________________________________...
tracking img