Tab de coleccionista de canciones

Solo disponible en BuenasTareas
  • Páginas : 4 (945 palabras )
  • Descarga(s) : 0
  • Publicado : 3 de octubre de 2010
Leer documento completo
Vista previa del texto
. | . | . | . | . | . | . |
intro:
C#
E------------------------------------------A--4-----------------4---------------------
D--3-----------------3---------------------
G--1-----5-----1h3---1-----5-----1h3-------
B--2/4-----2/4-------2/4-----2/4-----------e------1-----------------1-----------------

c# A#m
E-------------------------------------------------------A-4------------------------------1----------------------
D--3------------------------------3---------------------G-------------------------------------------------------
B----2-1----------------------------2h1-----------------
e-------------------------------------------------------
tu...coleccionista de canciones

F# G#
E-------2-----------------4-----------------------------A--------4-----------------6----------------------------
D------------4-----------------6------------------------
G----------3-----3-----------5---5--(5)-----------------B--------------2-----2------------4---------------------
e------------------2--------------------3h4-------------
dame razones paravivir

C# A#m F#
E-----------------------------------------------2-------A-4------------------------1---------------------4------
D--3-------------------------3--------------------4-----
G------------------------------3-------------------3----...
tracking img