Tablatura de the cure boys dont cry

Solo disponible en BuenasTareas
  • Páginas : 6 (1494 palabras )
  • Descarga(s) : 25
  • Publicado : 10 de mayo de 2009
Leer documento completo
Vista previa del texto
Boys Don't Cry
By The Cure
Tabbed by: Emily S. email: IFoughtTheLaw369@hotmail.com
Guitar tab
Tuning- Standard

Intro:
e|-----------------------------------------|
B|------2------3------5------7----7--5--3--|
G|------2------4------6------7----7--6--4--|
D|------2------4------6------7----7--6--4--|
A|------0------2------4------5----5--4--2--|E|-----------------------------------------|

0:06-Riff 1 (played after intro, and at the chorus):
e|---------------------------------2-4-5---2------
B|--2---2-3-5---2---2-3-5---5---5------------5-3--
G|------------------------------------------------
D|------------------------------------------------
A|------------------------------------------------
E|------------------------------------------------e|---------------------------------2-4-5---2---------|
B|--2---2-3-5---2---2-3-5---5---5------------5-3--2--|
G|---------------------------------------------------|
D|---------------------------------------------------|
A|---------------------------------------------------|
E|---------------------------------------------------|

Chords playing in background of Riff 1:e|----------------------------------------------------
B|------2--2-22---3--3-33---5--5-55---7--77-7--5--3---
G|------2--2-22---4--4-44---6--6-66---7--77-7--6--4--- Play 2X
D|------2--2-22---4--4-44---6--6-66---7--77-7--6--4---
A|------0--0-00---2--4-44---4--4-44---5--55-5--4--2---
E|----------------------------------------------------

Because it was too hard to tab the rhythm/strumming exactly, you will have
to listen to thesong to figure out the rhythm and timing of the intro/verse/chorus
chords. I think the way I play it in my video is pretty close to what is
actually played, and I just like to play it that way. But you can play it however
you like. Its really not too hard to figure out anyways.

When playing the rhythm, keep in mind that between the louder strums
there are a lot of softer notes that aren'texactly palm mutes, but
Robert Smith just brushes the pick over the strings strumming up and
down while keeping his fingers lightly pressed on the frets.

0:18- After Intro and Riff 1/chords:
e|----------------------------------------------------
B|------2--2-22---3--3-33---5--5-55---7--77-7--5--3---
G|------2--2-22---4--4-44---6--6-66---7--77-7--6--4---D|------2--2-22---4--4-44---6--6-66---7--77-7--6--4---
A|------0--0-00---2--4-44---4--4-44---5--55-5--4--2---
E|----------------------------------------------------
^ ^ ^
0:22- You can do the same ending as before---------, or this one that goes with the Bass part (I played it like this in my vid. Either way it works)

0:22-Variation ending:
e|-------------|
B|---7---------|G|---7--9--11--|
D|---7--9--11--|
A|---5--7--9---|
E|-------------|

***************
0:23 Verse 1:

e|---------------------------------------------
B|------2--2-22---3--3-33---5--5-55---7--7-77--
G|------2--2-22---4--4-44---6--6-66---7--7-77--
D|------2--2-22---4--4-44---6--6-66---7--7-77-- Play 2X
A|------0--0-00---2--4-44---4--4-44---5--5-55--E|---------------------------------------------
"I would say I'm sorry if I thought that it would change your mind.
But I know that this time I have said too much, been too unkind..."

0:35-
e|--------------------------------------------
B|----5--5-55----3--3-33----5--5555--3--3-33--
G|----6--6-66----4--4-44----6--6666--4--4-44-- Play 2X
D|----6--6-66----4--4-44----6--6666--4--4-44--A|----4--4-44----2--2-22----4--4444--2--2-22--
E|--------------------------------------------
"I try to laugh about it, cover it all up with lies.
I try to laugh about it, hiding the tears in my eyes..."

0:45- Riff 1 is playing at the same time as this:
e|----------------------------------------------------
B|------2--2-22---3--3-33---5--5-55---7--77-7--5--3---
G|------2--2-22---4--4-44---6--6-66---7--77-7--6--4--- Play 2X...
tracking img