Tablaturas metalica

Solo disponible en BuenasTareas
  • Páginas : 2 (281 palabras )
  • Descarga(s) : 0
  • Publicado : 31 de enero de 2011
Leer documento completo
Vista previa del texto
ONE – METALLICA

ReAlChRoNoS94

/ = Slide Up
= slide Down
h = Hammer On
p = Pull Off
b = Bend
r = Release
x = MutedString
t = Tap
~ = Vibrato
(DIS)= Con Distorsión
(ACU)= Acústica

[INTRODUCCIÓN]
[SONIDOS DE BATALLA]
[RIFF I]

GUITARRA RITMICA (ACÚSTICA)e|---------------------------------------------------------------------------|
b|---------------------------------------------------------------------------|
g|------------------------------------------------------------------------0--|D|----4-----0--(0)------4-----0--(0)-------4-----0--(0)------4-----0--(0)----|
A|-2-----2------------------------------2-----2------------------------------|E|-------------------3-----3------------------------------3-----3------------|

e|--------------------------------------------------------------------|
b|--------------------------------------------------------------------|g|--------------------------------------------------------------------|
D|----4------0--(0)------4-----0--(0)------4-----0--(0)---------------|A|-2-----2------------0-----0--------------------------------2-----2--|
E|--------------------------------------3-----3-----------0-----2-----|

[SOLO DE INICIO (LENTO)] [EL RIFF I SE REPITE DURANTE TODO EL SOLO]

GUITARRA LÍDER (ACÚSTICA)e|-------------------------------------------|
b|-----------------3p2-----3p2-----3-3p2-----|
g|------2-4b6r4~-------4-------2---------4~--|
D|-2h4---------------------------------------|A|-------------------------------------------|
E|-------------------------------------------|

e|--------------------------------------------------------------------|b|----------------------------------------2h3-2~------2-3p2-----------|
g|-11p97--9p76--7p64--6p42--/4~~---/4----------/4-------2-/4~~----|
D|--------------------------------------------------------------------|...
tracking img