Tablaturas

Solo disponible en BuenasTareas
  • Páginas : 3 (683 palabras )
  • Descarga(s) : 0
  • Publicado : 29 de noviembre de 2011
Leer documento completo
Vista previa del texto
h: ligado
/: deslizar el dedo hacia
v: vibrato (no la palanca)


E------|-------------3---|----------0h2--|-------------3---|-----2----
B ------|---0-1-3-4h5---3-|-------3-------|---0-1-3-4h5---3-|-1h3----3-
G------|-2---------------|---0h4---------|-2---------------|----------
D ------|-----------------|---------------|-----------------|----------
A ------|-----------------|---------------|-----------------|----------E ------|-----------------|---------------|-----------------|----------

E |-7-5-3-0-3-|-5-------|-7-5-3---5---------|--------------------|
B|-8-5-3-0-3-|-5--8h10-|-8-----5---5-5-2/3-|-5--------------5---|
G |-----------|---------|-------------------|----7-5-4---5-4-----|
D|-----------|---------|-------------------|----------7-------7-|
A |-----------|---------|-------------------|--------------------|
E |-----------|---------|-------------------|--------------------|E |--------------------|-7-5-3---3---3-5-|------|-------------3---|
B |-------3h4h5--3---3-|-8-----5---5-----|------|---0-1-3-4h5---3-|G |-4--7-----------4---|-----------------|------|-2---------------|
D |--------------------|-----------------|------|-----------------|
A|--------------------|-----------------|------|-----------------|
E |--------------------|-----------------|------|-----------------|

E|----------0h2--|-------------3---|-----2----|---8-----|
B |-------3-------|---0-1-3-4h5---3-|-1h3----3-|---8-12--|
G |---0h4---------|-2---------------|----------|---------|
D...
tracking img