Tabs vermillion pt 2

Solo disponible en BuenasTareas
  • Páginas : 9 (2086 palabras )
  • Descarga(s) : 0
  • Publicado : 8 de marzo de 2012
Leer documento completo
Vista previa del texto
Intro\Verse: (x6)
Q. Q. Q. Q. H W W
C#|---------------------------------------------------------------------------------|
G#|---------------------------------------------------------------------------------|
E |-4--------6----------------------------------------------------------------------|
b|-------------------5-------p4-------(4)------------------------------------------|
F#|---------------------------------------------------------------------------------|
B |------------------------------------------------0-------------(0)----------------|
|
| E E E E E E E E E E E E E E E E Q E E E E E E E E E E E E E E E
C#|---------------------------------------------------------------------------------|G#|---------------------------------------------------------------------------------|
E |------------------------------------------------7--7-7-7-7-7-7-7-7(7)7-7-7-7-7---|
b |-12-12-12-12-12-12-12-12-12-12-12-12-12-12-12-0-x--x-x-x-x-x-x-x-x---x-x-x-x-x-0-|
F#|-9--9--9--9--9--9--10-10-10-9--9--9--9--10-9--0-5--5-5-5-5-5-5-5-5\4-4-4-4-4-4-0-|
B|-9--9--9--11-11-11-9--9--9--9--9--9--9--9--9----0--0-0-0-0-0-0-0-0(0)0-0-0-0-0-0-|

Interlude: (x1)
H. H.
C#|------------------------------------------|
G#|-1------(1)-------------------------------|
E |-0------(0)-------------------------------|
b |-2------(2)-------------------------------|
F#|-3------(3)-------------------------------|
B |------------------------------------------|
|
| Q. Q E Q E E E E Q E E EE Q E E E E
C#|------------------------------------------|
G#|-1--1--1-1--1-1-1-1-1--1-1-1-1-1--1-1-1-1-|
E |-0--0--0-0--0-0-0-0-0--0-0-0-0-0--0-0-0-0-|
b |-2--2--2-2--2-2-2-2-2--2-2-2-2-2--2-2-2-2-|
F#|-3--3--3-3--3-3-3-3-3--3-3-3-3-3--3-3-3-3-|
B |------------------------------------------|

W W W WC#|-------------------------------------------------------------|
G#|-------------------------------------------------------------|
E |-------------------------------------------------------------|
b |-0-------------(0)-------------0-------------(0)-------------|
F#|-0-------------(0)-------------0-------------(0)-------------|
B |-0-------------(0)-------------0-------------(0)-------------|
|
| Q E E E E E E E E E E QE E Q E E E E E E E E E E Q E E
C#|-------------------------------------------------------------|
G#|-------------------------------------------------------------|
E |-7--7-7-7-7-7-7-7-7-7-7-7--7-7-7--7-7-7-7-7-7-7-7-7-7-7--7---|
b |-x--x-x-x-x-x-x-x-x-x-x-x--x-x-x--x-x-x-x-x-x-x-x-x-x-x--x-0-|
F#|-5--5-5-5-5-5-5-5-5-5-5-5--5-5-5--5-5-5-5-5-5-5-5-5-5-5--5-0-|
B|-0--0-0-0-0-0-0-0-7-7-7-6--6-6-0--0-0-0-0-0-0-0-7-7-7-6--6---|

Verse: (x4)
Q. Q. Q. Q. H W W
C#|---------------------------------------------------------------------------------|
G#|---------------------------------------------------------------------------------|
E |-4--------6----------------------------------------------------------------------|
b|-------------------5-------p4-------(4)------------------------------------------|
F#|---------------------------------------------------------------------------------|
B |------------------------------------------------0---------------(0)--------------|
|
| E E E E E E E E E E E E E E E E Q E E E E E E E E E E E E E E EC#|---------------------------------------------------------------------------------|
G#|---------------------------------------------------------------------------------|
E |------------------------------------------------7--7-7-7-7-7-7-7-7(7)7-7-7-7-7---|
b |-12-12-12-12-12-12-12-12-12-12-12-12-12-12-12-0-x--x-x-x-x-x-x-x-x---x-x-x-x-x-0-|
F#|-9--9--9--9--9--9--10-10-10-9--9--9--9--10-9--0-5--5-5-5-5-5-5-5-5\4-4-4-4-4-4-0-|
B...
tracking img