Tabs

Solo disponible en BuenasTareas
  • Páginas : 2 (291 palabras )
  • Descarga(s) : 0
  • Publicado : 12 de septiembre de 2012
Leer documento completo
Vista previa del texto
GUITARRA RITMICA (ACÚSTICA) metallica-one
e|---------------------------------------------------------------------------|b|---------------------------------------------------------------------------|
g|------------------------------------------------------------------------0--|D|----4-----0--(0)------4-----0--(0)-------4-----0--(0)------4-----0--(0)----|
A|-2-----2------------------------------2-----2------------------------------|E|-------------------3-----3------------------------------3-----3------------|


e|--------------------------------------------------------------------|b|--------------------------------------------------------------------|
g|--------------------------------------------------------------------|D|----4------0--(0)------4-----0--(0)------4-----0--(0)---------------|
A|-2-----2------------0-----0--------------------------------2-----2--|
E|--------------------------------------3-----3-----------0-----2-----|

Corazónencantado-dragon ball gt
e/-3-3-----3-5-3---------------------------------5-3--/
B/-----5-6-------6-5---5-5-----5-6-5------------------/
G/-------------------7-----5-7-------7-5-4-2-2-5-----5/D/----------------------------------------------------/
A/----------------------------------------------------/
E/----------------------------------------------------/e/-------------------3-3-----3-5-3--------------------/
B/-3-5-6-5-3---5-6-4-----5-6-------6-5---5-5-----5-6-5/
G/-----------5-------------------------7-----5-7------/
D/----------------------------------------------------/A/----------------------------------------------------/
E/----------------------------------------------------/

e/-------------5-3----------------------/
B/-------------------3-5-6-5-3---3-1-0-1/...
tracking img