Viva el rock

Solo disponible en BuenasTareas
  • Páginas : 9 (2028 palabras )
  • Descarga(s) : 0
  • Publicado : 22 de febrero de 2012
Leer documento completo
Vista previa del texto
Intro (With A Tremelo Effect) |
|-------------------------------------------------------------------------------|
|
| NOTE: This is played over all of the verses; anywhere you hear a tremelo in
| the background, this is the riff being played:
|
| |---------------------------|
| |---------------------------|
||----------------8~---------|
| |--3~-----6~-----8~-----8~--|
| |--3~-----6~-----6~-----8~--|
| |--1~-----4~------------6~--|
|

|-------------------------------------------------------------------------------|
| Verse 1 |
|-------------------------------------------------------------------------------|
|
||-----------------------------------|
| |-----------------------------------|
| |------------------8-8-8-8----------|
| |--3-3-3-3-6-6-6-6-8-8-8-8-8-8-8-8--|
| |--3-3-3-3-6-6-6-6-6-6-6-6-8-8-8-8--|
| |--1-1-1-1-4-4-4-4---------6-6-6-6--|
|
| |-----------------------------------|
| |-----------------------------------|
| |------------------8-8-8-8----------|
| |--3-3-3-3-6-6-6-6-8-8-8-8-8-8-8-8--|| |--3-3-3-3-6-6-6-6-6-6-6-6-8-8-8-8--|
| |--1-1-1-1-4-4-4-4---------6-6-6-6--|
|
| |-----------------------------------|
| |-----------------------------------|
| |------------------8-8-8-8----------|
| |--3-3-3-3-6-6-6-6-8-8-8-8-8-8-8-8--|
| |--3-3-3-3-6-6-6-6-6-6-6-6-8-8-8-8--|
| |--1-1-1-1-4-4-4-4---------6-6-6-6--|
| | |
||-----------------------------------|
| |--8/9-----13/11---8/9-----9/6------|
| |-----------------------------------|
| |-----------------------------------|
| |-----------------------------------|
| |-----------------------------------|
|
| |-----------------------------------|
| |-----------------------------------|
| |------------------8-8-8-8----------|
||--3-3-3-3-6-6-6-6-8-8-8-8-8-8-8-8--|
| |--3-3-3-3-6-6-6-6-6-6-6-6-8-8-8-8--|
| |--1-1-1-1-4-4-4-4---------6-6-6-6--|
|
| |-----------------------------------|
| |-----------------------------------|
| |------------------8-8-8-8----------|
| |--3-3-3-3-6-6-6-6-8-8-8-8-8-8-8-8--|
| |--3-3-3-3-6-6-6-6-6-6-6-6-8-8-8-8--|
| |--1-1-1-1-4-4-4-4---------6-6-6-6--|
|
||-----------------------------------|
| |-----------------------------------|
| |------------------8-8-8-8-------5--|
| |--3-3-3-3-6-6-6-6-8-8-8-8-8-8-8-5--|
| |--3-3-3-3-6-6-6-6-6-6-6-6-8-8-8-3--|
| |--1-1-1-1-4-4-4-4---------6-6-6----|
| | |
| |-----------------------------------|
| |--8/9-----13/11---8/9--------------|
| |-----------------------------------|
||-----------------------------------|
| |-----------------------------------|
| |-----------------------------------|
|

|-------------------------------------------------------------------------------|
| Chorus 1 |
|-------------------------------------------------------------------------------|
|
||-----------------------------------|
| |-----------------------------------|
| |--6-6-6-6---------8-8-8-8----------|
| |--6-6-6-6-6-6-6-6-8-8-8-8-3-3-3-3--|
| |--4-4-4-4-6-6-6-6-6-6-6-6-3-3-3-3--|
| |----------4-4-4-4---------1-1-1-1--|
|
| |-----------------------------------|
| |-----------------------------------|
| |--6-6-6-6---------8-8-8-8----------|
||--6-6-6-6-6-6-6-6-8-8-8-8-3-3-3-3--|
| |--4-4-4-4-6-6-6-6-6-6-6-6-3-3-3-3--|
| |----------4-4-4-4---------1-1-1-1--|
|
| |-----------------------------------|
| |-----------------------------------|
| |--6-6-6-6---------8-8-8-8----------|
| |--6-6-6-6-6-6-6-6-8-8-8-8-3-3-3-3--|
| |--4-4-4-4-6-6-6-6-6-6-6-6-3-3-3-3--|
| |----------4-4-4-4---------1-1-1-1--|
|
| |-----------------------------|
|...
tracking img