A tout le monde

Solo disponible en BuenasTareas
  • Páginas : 6 (1274 palabras )
  • Descarga(s) : 0
  • Publicado : 11 de marzo de 2012
Leer documento completo
Vista previa del texto
Gtr 1 - Tuning Standard - (E A D G B E)


Riff 1 (Clean)
eb|----------------------------------|
Bb|----------------------------------|
Gb|-----2-----2----------2-----2-----|
Db|----------------------------------|
Ab|---4-----4-----4----4-----4-----4-|Eb|-2-----2-----2----0-----0-----0---|
"Don't remember..."
eb|----------------------------------|
Bb|----------------------------------|
Gb|-----2-----2----------2-------2---|
Db|---4-----4---4------0-------2-----|
Ab|-2-----2------------------0-------|Eb|----------------2h3-----3-------3-|
"...realized life was a game..."


Riff 2 (Distortion)
eb|----------------------------------|
Bb|----------------------------------|
Gb|----------2------2h4----2-4-------|
Db|-4----2-4-2----2-2h4----2-4-2--4--|Ab|-4----2-4------2------------2--4--|
Eb|----------------------------------|
* * * * *
"So as you read.."
eb|------------------------------|
Bb|------------------------------|
Gb|------------2------4----2-4-2-|
Db|---4----2-4-2----2-4----2-4-2-|Ab|---4----2-4------2------------|
Eb|-0----------------------------|
* * * * * *
"Please smile when you..."
eb|---------------------------------|
Bb|---------------------------------|
Gb|-7-7-7-7-7-7-7-7-7-7-7-7-7-7-7-7-|Db|-7-7-7-7-7-7-7-7-7-7-7-7-7-7-7-7-|
Ab|---------------------------------|
Eb|---------------------------------|
"..all..."


Riff 3
Guitar 1 (Distortion)
eb|------------------------------|
Bb|------------------------------|Gb|------------------------------|
Db|---------------4--------------|
Ab|-4----4-2------2----7\-4----4-|
Eb|-2----2-0----0------5\-2----2-|
* * *
"A tout le monde, a tout mes amis..."
eb|-------------------------|
Bb|-------------------------|Gb|-------------------------|
Db|-2------6----6-4----4--7-|
Ab|-0----0-4----4-2----2--5-|
Eb|-----------------------5-|
* * *
"These are the..., I'll ever speak..."


Guitar 2 (Clean)
eb|------9------9-------7-----7-|Bb|---10---10---------9---9-----|
Gb|-9---------9-----9-------9---|
Db|-----------------------------|
Ab|-----------------------------|
Eb|-----------------------------|
"A tout le monde, a tout mes amis..."

eb|-----7-----7-------5-----5-|Bb|---7---7---------7---7-----|
Gb|-8-------8-----6-------6---|
Db|---------------------------|
Ab|---------------------------|
Eb|---------------------------|
"Je vous aime, je dois partir..."

eb|-----5-----5-------4-----4-|
Bb|---5---5---------5---5-----|...
tracking img