Acordes de guitarra y textos cd 24 latin mix

Solo disponible en BuenasTareas
  • Páginas : 19 (4707 palabras )
  • Descarga(s) : 0
  • Publicado : 29 de enero de 2012
Leer documento completo
Vista previa del texto
1. Barrunto (Héctor Lavoe)

Intro: (2 veces)
Fm C# D# Fm
e|-------------------------------------------|
B|-6-8-9.-8-6----6-8-9.-8-6-----9-8.-6---6.--|
G|----------------------------6--------8-----|
D|-------------------------------------------|
A|-------------------------------------------|
E|-------------------------------------------|Fm
Barrunto en mi corazón,
presentimiento de que pronto llegará la separación.

Bbm Fm
Si ayer fue felicidad hoy es tristeza
C# C
pero qué angustia, melancolía, desilusión.

Bbm Fm
Como cuando hay la sensación de agua con viento
C Fmtengo ya el presentimiento barrunto en mi corazón.


Bbm C Fm
Tengo ya el presentimiento, barrunto en mi corazón
Bbm C Fm
oye yo tengo el presentimiento, barrunto en mi corazón.
Bbm C Fm
Tengo ya el presentimiento, barrunto en mi corazónBbm C Fm
nadie comprende lo que sufro yo, lloro que ya no puedo sollozar.
Bbm C Fm
Tengo ya el presentimiento, barrunto en mi corazón
Bbm C Fm
ay mamita buena de mi vida, ven, dame un beso de amor
Bbm C Fm
Tengo ya el presentimiento,barrunto en mi corazón
Bbm C Fm
hey! tú te portas mal porque él te adoró. Soba mami!.



Bbm Fm
e|---------------------------------------
B|---------------------------------------
G|-5-6-5-5-------5-6----6-5-----------5--
D|---------8-7-8------------8-6-5-6-8----
A|---------------------------------------E|---------------------------------------

C Fm
e|----------------|
B|----------------|
G|-3.---6.-5-3-5.-|
D|----5-----------|
A|----------------|
E|----------------|

Bbm Fm
e|---------------------------------------
B|---------------------------------------
G|-5-6-5-5-------5-6----6-5-----------5--D|---------8-7-8------------8-6-5-6-8----
A|---------------------------------------
E|---------------------------------------

F# C Fm Fm
e|---------------------------8---|
B|---------------------------9---|
G|----3-5------------10-8-10-10--|
D|-4.-----2-3-5-3.---------------|
A|-------------------------------|
E|-------------------------------|

Bbm CFm
Tengo ya el presentimiento, barrunto en mi corazón
Bbm C Fm
hey! que yo en el alma siento un dolor y aquí en la mente una confusión.
Bbm C Fm
Tengo ya el presentimiento, barrunto en mi corazón

Bbm C Fm
ay que gotitas dedolor derramadas al brindar por tu abandono.
Bbm - C - Fm

Fm - Bbm - C - Fm (x10)




Fm Bbm C Fm (x3)
e|-----------------------------|
B|-6---4----------------5-5-6--|
G|---5---6-3----5-5-5-5--------|
D|-----------------------------|
A|-----------------------------|
E|-----------------------------|


Fm Bbm C Fm(x3)
e|-----3-4-3---3------3-3-3-3-3-3---3-4-|
B|---6-------6--------------------6-----|
G|-5-------------6----------------------|
D|--------------------------------------|
A|--------------------------------------|
E|--------------------------------------|

Fm Bbm C Fm Bbm C Fm
e|-----3-4-3---3------3-3-3-3-3-3---3-4..-----4-4-6-6-8.-|...
tracking img