Amour

Solo disponible en BuenasTareas
  • Páginas : 4 (804 palabras )
  • Descarga(s) : 0
  • Publicado : 21 de septiembre de 2010
Leer documento completo
Vista previa del texto
e-----------------------------------------------|
b-----------------------------------------------|
g---------------------------------------1-h-0---|d------1-------1------------3--------1----------|
a---3-------3------3----1--------3--------------|
d-----------------------------------------------|

e-----------------------------------------------|b-----------------------------------------------|
g---------------------------------------1-h-0---|
d------1-------1------------3--------1----------|
a---3-------3------3----1--------3--------------|d-----------------------------------------------|

e-----------------------------------------------|
b-----------------------------------------------|
g---------------------------------------1-h-0---|d------1-------1------------3--------1----------|
a---3-------3------3----1--------3--------------|
d-----------------------------------------------|

e-----------------------------------------------|b-----------------------------------------------|
g-----------------------------------------------|
d------1-------1------------3-------------------|a---3-------3------3----1-----------------------|
d-----------------------------------------------|

e-----------------------------------------------|
b-----------------------------------------------|g---------------------------------------1-h-0---|
d------1-------1------------3--------1----------|
a---3-------3------3----1--------3--------------|
d-----------------------------------------------|e-----------------------------------------------|
b-----------------------------------------------|
g---------------------------------------1-h-0---|
d------1-------1------------3--------1----------|a---3-------3------3----1--------3--------------|
d-----------------------------------------------|

e-----------------------------------------------|
b-----------------------------------------------|...
tracking img