Asientos contables y balanza

Solo disponible en BuenasTareas
  • Páginas : 3 (644 palabras )
  • Descarga(s) : 0
  • Publicado : 20 de abril de 2010
Leer documento completo
Vista previa del texto
ASIENTOS CONTABLES:
Balanza de comprobación:
ASIENTOS CONTABLES:
---------------------------1-----------------------------------
Almacen 2,000
Bancos 1,000
Proveedores 1,000---------------------------2-----------------------------------
Moviliario y equipo de oficina 10,000
Bancos 5,000
Acreedores 2,500
Documentos por pagar 2,500----------------------------3----------------------------------
Bancos 3,200
Ventas 8,000
Clientes 4,800
----------------------------4----------------------------------
Deudores diversos 2,000Bancos 2,000
----------------------------5----------------------------------
Inversiones 5,500
Bancos 5,500
----------------------------6----------------------------------Propaganda y publicidad 11,000
Bancos 11,000
-----------------------------7---------------------------------
Edificios 125,000
Bancos 125,000-----------------------------8---------------------------------
Terrenos 200,000
Terrenos no utilizados 20,000
Bancos 120,000
Acreedores 40,000
Documentos por pagar 40,000-----------------------------9---------------------------------
Papelería y ùtiles 4,000
Acreedores 4,000
----------------------------10---------------------------------
Proveedores 2,500
Bancos 2,500----------------------------11---------------------------------
Bancos 5,300
Clientes 5,300
----------------------------12---------------------------------
Gastos de venta 1,340Acreedores 1,340
----------------------------13---------------------------------
Papelería y utiles 700
Gastos de venta 350
Gastos de admon 350----------------------------14---------------------------------
Equipo de reparto 890
Seguros 890
----------------------------15---------------------------------
Gastos de venta 6,450
Propaganda y publicidad 6,450...
tracking img