Bach prelude nº 1

Solo disponible en BuenasTareas
  • Páginas : 3 (745 palabras )
  • Descarga(s) : 0
  • Publicado : 18 de febrero de 2012
Leer documento completo
Vista previa del texto
G|----4---4---4-------4---4---4--|----5-4-5---5-------5-4-5---5--|
D|------7---------------7--------|--2-------2---2---2-------2---2|A|--5-------5---5---5-------5---5|-------------------------------|
E|3---------------3--------------|3---------------3--------------|

G|----5-4-5---5-------5-4-5---5--|----4---4---4-------4---4---4--|D|--4-------4---4---4-------4---4|--5---7---5---5---5---7---5---4|
A|-------------------------------|-------------------------------|
E|3---------------3--------------|3---------------3--------------|G|----4-2-4----------------------|----2---2---2-------2---2---2--|
D|--2-------5-4-5-2-5-4-5--------|--5---5---5---5---5---5---5---5|
A|------------------------2-5-4-2|4---------------4--------------|E|3------------------------------|-------------------------------|

G|----7-6-7----------------------|-------------------------------|
D|4-7-------7-5-7-4-7-5-7---4----|----5-4-5---5-------5-4-5---5--|A|------------------------5---7-5|--2-------2---2---2-------2---2|
E|-------------------------------|0---------------0--------------|

G|----------------------7-6-4----|------7---7--------------------|D|----------------5-4---------7-5|4-------7---4-7-----4-7-5-4----|
A|--4-5-7-5-4---------7----------|--7-5-----------5-7---------7-5|
E|0-----------7-5----------------|-------------------------------|G|----------------4--------------|----2-4-5-2---------2-4-5-2----|
D|6-----------6---------------6--|--2---------2-----2---------4-2|
A|--5-8-7-8-5---5---5-8-7-8-5---5|3-------------5-3--------------|E|-------------------------------|-------------------------------|

G|-------------------------------|-------------------------------|
D|--4---4-7-4-7-4---4---4-7-4-7-4|5-4---5-4-5-7-4-5-4------------|A|6---6-----------6---6----------|----7---------------7-5-3-2----|
E|-------------------------------|----------------------------5-3|

G|-------------------------------|-------------------------------|...
tracking img