Clasificaciones terminales

Solo disponible en BuenasTareas
  • Páginas : 5 (1240 palabras )
  • Descarga(s) : 0
  • Publicado : 17 de noviembre de 2011
Leer documento completo
Vista previa del texto
E/-------------------------------------------
B/-------------------------------------------
G/--------------12-11-11-9--11-9--7/9--7-7--5
D/----------9--------------------------------
A/-------------------------------------------
E/-------------------------------------------E/--------------------------------------------------
B/----5-6-7-7-7-7-7-------8--7-7-7-7-7--------------
G/---------------------9--------------------11-12-11
D/-------------------9-------------------9----------
A/--------------------------------------------------
E/--------------------------------------------------Las flores ya no llegan, el poema se acabo
D G B
lo que un dia fue amor, en amargura se volvio.
Em Am
Ella quiere regresar el tiempo que paso,
B Bsus4 B
para poderrevivir los placeres del ayer

=CORO=
Em Am D G C
Ya no puede ver las cosas igual, porque en el mar
Bsus4 B Em Am D
de olvido todo ya quedo, ya el oceano a perdido su
G C(add9)
color azul,G D
las estrellas miran, la luna la abraza, y un angel
Em D C
llora.

Em Am
Pasaron ya los años, ya el se olvido
D G B
de el amor queprometio cuando la conocio.
Em Am
Entra a la habitacion, y en la cama el la vio
B Bsus4 B
toca su cuerpo frio, la tristeza la mato.

( aqui entra esto Em, Am, Em )

Em AmLas flores ya llegaron, el poema empezo
D G B
sobre una tumba fria el llora su dolor
Em Am
El solo quiere regresar el tiempo que paso
B Bsus4 B
para poder perderse asi en la hermosura de su voze|----2---4---5---4---2-------2---4---5---5---7---5---7---9------|
B|-2----------------------2--------------------------------------|
G|---------------------------------------------------------------|

| Habatai-ta-ra | | modorenai to ite |

e|----2---4---5---4---2----2---9---7---2---9---5---0---0---2---2-|B|-2-------------------------------------------------------------|
G|---------------------------------------------------------------|

| mezashita no wa | | aoi aoi ano sora |

( Solo )
e|---5---4---7---9---7---5----5---4---0--0--0-h-2--0--0--2---4---|
B|---------------------------------------------------------------|
G|---------------------------------------------------------------|

(verso 1)e|---2---3---4---4---3---2---0---2---------------------------------0-|
B|2----------2--------------------------0---2-------2--2--2---3------|
G|----------------------------------2--------------------------------|

| kanashimi wo mada oboerarezu | | setsunasawa

e|--2---0---0--0--0---2---4---5---4----5---4---5--------5---4---2--0|
B|---------------------------------2---------------2----------------|...
tracking img