Como se relaciona la etimologia con otras ciencias

Solo disponible en BuenasTareas
  • Páginas : 5 (1157 palabras )
  • Descarga(s) : 0
  • Publicado : 23 de agosto de 2012
Leer documento completo
Vista previa del texto
Strange Word
G-------------------------|--------------------|------------------------
D---3:--------------------|--------------------|------------------------
A---4:--------------------|--7-----------------|------------------------
E-------0-----------------|--------7-----5-----|--0---------------------G--|----------------------|--------------------|---------------------
D--|----------------------|--------------------|---------------------
A--|--5h7-----------------|--------------------|---------------------E--|----------------------|--5h7---------------|--3h5-----3-----2----


G----|--------------------|--------------------|--------------------
D----|--------------------|--------------------|--------------------A----|--------------------|--5h7---------------|--------------------
E----|--0-----------------|--------------------|--5h7---------------G-------------------------|--------------------|------------------
D-------------------------|--------------------|------------------
A-------------------------|--------------------|--7---------------
E---3h5-----2h3-----2-----|--0-----------------|------------------G----|--------------------|--------------------|-------------------
D----|--------------------|--------------------|-------------------
A----|--------------------|--------------------|--------------7--8-
E----|--0-----------0-----|--4-----5-----7-----|--8--------8-------G---|---------------------|-----------------------|------------------
D---|---------------------|-----------------------|------------------A---|--10--------8--7-----|----------------9--10--|--12--------9-----
E---|------------------8--|--10--------10---------|------------------


G--------------|------------------------|------------------------|------D--------------|------------------------|----------------14--14--|------
A---h10p9------|----------------11--12--|--14--------14----------|------
E----------10--|--12--------12----------|------------------------|------G---------------------------|--------------------------|----------------
D---14--14--14--12----------|--12----------------------|----------------
A-------------------14--12--|------14--12--------------|----------------
E---------------------------|--------------15--14--12--|--8--------8----...
tracking img