Como tocar guitarra

Solo disponible en BuenasTareas
  • Páginas : 5 (1178 palabras )
  • Descarga(s) : 0
  • Publicado : 11 de noviembre de 2011
Leer documento completo
Vista previa del texto
Am G F Am G F
e------------------------------------------------------
B---0-1----1--------------0--1----1--------------------
G-2-------2------0--2---2-------2------0--3------------
D--------2-----0----3--2-------2-----0----3------------A-------0-----------3---------0-----------3------------
E------------3----------------------3------------------

e------------------------------------------------------
B-------1--1-------------------1---1-------------------
G---------2------0--2---2--------2------0--2---2-------
D--------2-----0----3--3-3------2-----0----3--3-3------A-------0-----------3----------0-----------3-----------
E------------3----------------------3------------------
Alejarte de mi y hazlo pronto antes de que te mienta.
e------------------------------------------------------
B-------1--1-------------------1---1-------------------G---------2------0--2---2--------2------0--2---2-------
D--------2-----0----3--3-3------2-----0----3--3-3------
A-------0-----------3----------0-----------3-----------
E------------3----------------------3------------------
Tu cielo se hace gris , yo ya camino bajo la tormenta.
e-------0----------------------------------------------B----------1-------------------1---1-------------------
G---------2------0--2---2--------2------0--2---2-------
D--------2-----0----3--3-3------2-----0----3--3-3------
A-------0-----------3----------0-----------3-----------
E------------3----------------------3------------------
Alejarte de mi, escapa ve queya no debo verte.
e------------------------------------------------------
B-------1--1-------------------1---1-------------------
G---------2------0--2---2--------2------0--2---2-------
D--------2-----0----3--3-3------2-----0----3--3-3------
A-------0-----------3----------0-----------3-----------E------------3----------------------3------------------
Entiende que aunque pida que te vayas, no quiero perderte.

Verso:

e-------------------------------I-------------------------------
B--------0------1---1-(1)-------I-------------1-0---------------G-0--0----0--0---2--2---(2)-----I-----------------2-------------
D------2-------2----3-----------I--------------2-2--------------
A-----2------0------------------I-------------0-----------------
E----0--------------------------I-------------------------------
La luz ya, no alcanza, No quieras caminar sobre el dolor descalza…e-------------------------------I---------------------------------
B--------0------1---------------I--------------1---1---1-1--------
G-0--0----0--0---2--------------I-------------0-0-0-0--0-0--------
D------2-------2----------------I------------3---3---3-3-3--------
A-----2------0------------------I---------------------------------E----0--------------------------I---------------------------------
Un Angel te cuida, Y puso en mi boca la verdad para mostrarme la salida

e----------------------------------3------------------
B----------1---1---1—-1-—---1------3------------------
G---------0-0-0-0--0—-0-----2------0------------------...
tracking img