Ensayo

Solo disponible en BuenasTareas
  • Páginas : 5 (1162 palabras )
  • Descarga(s) : 0
  • Publicado : 1 de noviembre de 2010
Leer documento completo
Vista previa del texto
Song: Darkside Of Aquarius

Artist: Bruce Dickinson

Album: Accident Of Birth

Written By Bruce Dickinson and Roy Z

Tabbed & transcribed by Ricardo Bustos O.

email: RBO567@Hotmail.com

pm = palm muting

h = hammer on

p = pull off

x = harmonic note

/ = slide

* = stay in that note for certain time

b = bend

Riff 1

Riff 2(4 times)

Riff 3(2 times)

Bridge 1Riff 3

Bridge 1

Riff 3(4 times)

Bridge 1

Riff 3

Bridge 1

Chorus Riff(2 times)

Bridge 2

Riff 3(4 times)

Bridge 1

Riff 3

Bridge 1

Chorus Riff(4 times)

Bridge 3

Solo 1

Solo 2

Bridge 4

Bridge 5

Riff 4(2 times)

Bridge 6

Riff 4(4 times)

Bridge 7

Riff 5(2 times)

Riff 4(´til it ends)

Riff 1: with clean soundE---------------------------------------------

B---------------------------------------------

G-9----10-12--14-12-10----9----10-12--14-12-10

D-0----0--0---0--0--0-----0----0--0---0--0--0-

A---------------------------------------------

E---------------------------------------------

E---------------------------------------------

B---------------------------------------------G-15---14-12-14----12--9--10----15---14-12-14-

D-0----0--0--0-----0---0--0-----0----0--0--0---

A---------------------------------------------

E---------------------------------------------

E---------------------------------------------

B---------------------------------------------

G---12--9--10-------9------10-----------------

D---0---0--0--------0-------0-----------------A---------------------------------------------

E---------------------------------------------

Riff 2 : with heavy distortion

E---------------------------------------------

B---------------------------------------------

G---------------------------------------------

D---------------12-10---------------12--13----

A--555555555555-10--8--555555555555-10--11----E---------------------------------------------

pm......pm.. pm.....pm...

Riff 3:

E-------------------------------------------------

B-------------------------------------------------

G-------------------------------------------------

D-------3------------5-3---------3----------------

A3h5-55---555--3h5-55-----3h5-55---555--3h5-55-5-3

E----------------------------------------------3-1Bridge 1:

E---------------------------------------------

B---------------------------------------------

G---------------------------------------------

D---------------------------------------------

A--5---5-7-8---10-----------------------------

E--3---3-5-6---8------------------------------

Chorus Riff :

E---------------------------------------------B---------------------------------------------

G---------------------------------------------

D--7---------------------3---5----------------

A--5---------3-----5-----1---3----------------

E------------1-----3--------------------------

Bridge 2:

E-------------------------------------------------

B-------------------------------------------------G-------------------------------------------------

D-------3------------5-3---------3----------------

A3h5-55---555--3h5-55-----3h5-55---555--3h5-55-5-3

E----------------------------------------------3-1

E-------------------------------------------------

B-------------------------------------------------

G-------------------------------------------------

D-------3------------5-3--3-3--3-3--5-5--5-5------A3h5-55---555--3h5-55-----1-1--1-1--3-3--3-3------

E-------------------------------------------------

Bridge 3:

Hear the song to get the rhythm

E---------------------------------------------

B---------------------------------------------

G---------------------------------------------

D--7-7-7-7---7-7-7-7---7-7---7-7-7-7---7-5----

A--5-5-5-5---5-5-5-5---5-5---5-5-5-5---5-3----...
tracking img