Ensayo

Solo disponible en BuenasTareas
  • Páginas : 5 (1001 palabras )
  • Descarga(s) : 0
  • Publicado : 1 de febrero de 2011
Leer documento completo
Vista previa del texto
Cafe Tacuba
Eres

I think this is a great song and I want to dedicate to a friend, but let's go to the
action: This song is played with 2 guitars. We start with the guitar 1 this is the
electric guitar this guitar only play the chords indicated. And the guitar 2 is the
acoustic guitar thisguitar only plays the arpeggios that are down the letter of the
song. I´m 100% sure that the chords and the arpeggios they are the correct ones

****************************************************************************

Guitar 1: Am, C, E, E7 x4


Guitar2: the arpeggios enter after the circle of the guitar 1 are played 2 times

Am C E E7
e|---------0------------------0---------|
B|-----1-----1------------------0-------|
G|---2---2-----0----------1-------1-----|
D|-2-------------2------2---0-------0---|A|-----------------3--2-----------------|
E|--------------------------------------|

Am C E E7
e|---------0------------------0---------|
B|-----1-----1------------------0-------|
G|---2---2-----0----------1-------1-----|D|-2-------------2------2---0-------0---|
A|-----------------3--2-----------------|
E|--------------------------------------|



Eres,
Am C
e|---------0----------|
B|-----1-----1--------|
G|---2---2-----0------|D|-2-------------2----|
A|-----------------3--|
E|--------------------|

Lo que mas quiero en este mundo eso eres,
E E7
e|---------0--------------------------------0----------|
B|-----1-----1--------------------------1-----1--------|G|---2---2-----0----------------------2---2-----0------|
D|-2-------------2------------------2-------------2----|
A|-----------------3--------------------------------3--|
E|-----------------------------------------------------|

mi pensamiento mas profundo también eres,
EE7 Dm
e|---------0---------------1-----1/3--1-|
B|-----1-----1-----------3---3----------|
G|---2---2-----0-------2-------2--------|
D|-2-------------2----------------------|
A|-----------------3--------------------|
E|--------------------------------------|tan solo dime lo que hago
E E7
e|---------0-------------|
B|-----1-----1-----------|
G|---2---2-----0---------|
D|-2-------------2-------|
A|-----------------3-----|
E|-----------------------|

aquí me tienes.Am C E E7
e|---------0------------------0---------|
B|-----1-----1------------------0-------|
G|---2---2-----0----------1-------1-----|
D|-2-------------2------2---0-------0---|
A|-----------------3--2-----------------|...
tracking img