Etica

Solo disponible en BuenasTareas
  • Páginas : 54 (13486 palabras )
  • Descarga(s) : 0
  • Publicado : 4 de octubre de 2010
Leer documento completo
Vista previa del texto
corazon partio version acustica
alejandro sanz solo con su guitarra
esta version la pueden ver en youtube
como corazon partio acustico

ACORDES

Eadd9 Eadd9(+5) Eadd9? Fm/A# G#m F#m B7 C#7
e- -0- -0- -0- -x- -4- -2- -2- -4-
B- -0- -0- -0- -6- -4- -2- -4- -6-
G- -1- -1- -1- -5- -4- -2- -2- -4-
D- -4--4- -4- -6- -4- -2- -4- -6-
A- -2- -3- -4- -x- -6- -4- -2- -4-
E- -0- -0- -0- -6- -4- -2- -2- -4-

|---------------|---------------|----------------|----------------|e
|---------------|---------------|----------------|----------------|B
|----1----1--1--|-------2-1h2p1-|----------1h2p1-|----------1h2p1-|G|----4----4--4--|-----4---------|-----4----------|-----4----------|D
|----2----2--3--|---2-----------|---3------------|---4------------|A
|--0------0--0--|-0-------------|-0--------------|-0--------------|E

rasgueo flamenco
|---------------|-4--------4--4-|-----2--2--2----|-----2----------|e
|-------6--5/6--|-4--------7--4-|-----2--5--4p2--|--4--4-----4----|B|-------5--4/5--|-4--------4--4-|-----2--2--2----|--2--2-----2----|G
|-------6--5/6--|-4--------4--4-|-----2--2--2----|--4--4-----4----|D
|---------------|-6--------6--6-|-----4--4--4----|--2--------2----|A
|----6-----5/6--|-4--------4--4-|-----2----------|--2--------2----|E

|---------------|---------------|----------------|----------------|e
|---------------|---------------|----------------|--6-6-6---5/6---|B|-------2-1h2p1-|-------2-1h2p1-|-------2-1h2p1--|--5-5-5---4/5---|G
|-----4---------|-----4---------|-----4----------|--6-6-6---5/6---|D
|---2-----------|---3-----------|---4------------|----------------|A
|-0-------------|-0-------------|-0--------------|--6-6-6---5/6---|E

rasgueo flamenco
|-4--------4--4-|-----2-----2---|---------2-2----|e
|-4--------7--4-|-----2-----2---|---------4-4----|B|-4--------4--4-|-----2-----2---|---------2-2----|G
|-4--------4--4-|-----2-----2---|---------4-4----|D
|-6--------6--6-|-----4---------|---------2-2----|A
|-4--------4--4-|-----2---------|----------------|E

Eadd9 Eadd9(+5)
Ya lo ves, que no hay dos sin tres,
Eadd9? Fm/A#
que la vida va y viene y que no se detiene...
G#m
y, qué sé yo,
F#mB7
pero miénteme aunque sea, dime que algo queda

Eadd9 Eadd9(+5)
entre nosotros dos, que en tu habitación
Eadd9? Fm/A#
nunca sale el sol, ni existe el tiempo,
G#m
ni el dolor.
F#m B7
Llévame si quieres a perder,
B7 A#7 G#m C#7
a ningún destino, sin ningún por qué.
C#7 C7 B7 F#m B7

Eadd9Eadd9(+5)
Ya lo sé, que corazón que no ve
Eadd9?
es corazón que no siente,
Fm/A# G#m
o corazón que te miente amor.
F#m B7
pero, sabes que en lo más profundo de mi alma

Eadd9 Eadd9(+9)
sigue aquel dolor por creer en ti
Eadd9? Fm/A# G#m
¿qué fue de la ilusión y de lo bello que esvivir?
F#m B7
Para qué me curaste cuando estaba herío
G#m C#7
si hoy me dejas de nuevo con el corazón partío.

F#m
¿quién me va a entregar sus emociones?
B7
¿quién me va a pedir que nunca le abandone?
Fm/A# G#m
¿quién me tapará esta noche si hace frío?
C#7
¿quién me va a curarel corazón partío?
F#m
¿quién llenará de primaveras este enero,
B7
y bajará la luna para que juguemos?
Fm/A# G#m
dime, si tú te vas, dime cariño mío,
C#7
¿quién me va a curar el corazón partío?

|-----------2---2-2--2-2--2---2-|----------|----------|-----------|e
|-----------2---5-5--4-4--2h4-4-|----------|----------|---------0-|B...
tracking img