Gatos

Solo disponible en BuenasTareas
  • Páginas : 2 (425 palabras )
  • Descarga(s) : 0
  • Publicado : 9 de enero de 2012
Leer documento completo
Vista previa del texto
Iron man – Black Sabbath

|------------------------------------------
|------------------------------------------ *this is|------------------------------------------ the rhythm
|----7--7/9-9--12\11-12\11-12\11--7-7/9-9--|-9--5--5/7-7--10\9--10\9--10\9---5-5/7-7--
|-7----------------------------------------
repeat once

|------------------------------------------|------------------------------------------
|------------------------------------------
|------------------------------------------|----5--5h7--7--10\9-10\9-10\9--5--5h7--7--
|-7----------------------------------------
has he lost can he see or is blind
hishe
mind

repeat throughout the verse
rhythm once
|------------------------------------------|------------------------------------------
|------------------------------------------
|------------------------------------------|----5--5h7--7--10\9-10\9-10\9--5--5h7--7--
|-7----------------------------------------

Is he live or dead? Has he thoughts within his head,ect.
repeat throughout the verse

* 1st riff
|------------------------------------------------------|------------------------------------------------------
|------------------------------------------------------
|------------------------------------------------------...
tracking img