Guitarra

Solo disponible en BuenasTareas
  • Páginas : 13 (3008 palabras )
  • Descarga(s) : 0
  • Publicado : 30 de enero de 2012
Leer documento completo
Vista previa del texto
C Cmaj7 C/D C
e|-----------|------------|------------|------------| |
B|—1------1--|—0-------0--|-3-------3--|-1-------1--| |
G|-----0---0-|-----0----0-|-----0----0-|-----0----0-| |
D|----2------|----2-------|----2-------|----2-------| |
A|-3---------|-3----------|-3----------|-3----------| |
E|-----------|------------|------------|------------| |
Am°Am°° Am Am° ||
e|-----------|------------|------------|------------| |
B|-0------0--|-3-------3--|-1-------1--|-0-------0--| |
G|-----2---2-|-----2----2-|-----2----2-|-----2----2-| |
D|----2------|----2-------|----2-------|----2-------| |
A|-0---------|-0----------|-0----------|-0----------| |
E|-----------|------------|------------|------------| |C/D C Cmaj7 C° ||
uuuu…… uuuu…… uuuuu……… uuuu ||
e|-----------|------------|------------|------------| |
B|-3------3--|-1-------1--|-0-------0--|-3-------3--| |
G|-----0---0-|-----0----0-|-----0----0-|-----0----0-| |
D|----2------|----2-------|----2-------|----2-------| |
A|-3---------|-3----------|-3----------|-3----------||
E|-----------|------------|------------|------------| |
Am Am° Am°° ||
e|-----------|------------|------------|------------| |
B|-1------1--|-0-------0--|-3-------3--|-1--3-0-----| |
G|-----2---2-|-----2----2-|-----2----2-|------------| |
D|----2------|----2-------|----2-------|------------| |A|-0---------|-0----------|-0----------|-0--0-0-----| |
E|-----------|------------|------------|------------| |
||
||
C Cmaj7 C/D C ||
Ha….y ve…. ces.. que ||
e|-----------|------------|-0-------0--|-0------0---| |B|-1------1--|-0-------0--|------3-----|-----1------| |
G|-----0---0-|-----0----0-|-----0----0-|----0----0--| |
D|----2------|----2-------|------------|------------| |
A|-3---------|-3----------|-3----------|-3----------| |
E|-----------|------------|------------|------------| |
||
G Dm Am ||
mi alma baila tangos con lasoledad ||
e|-3------3--|-1-------1--|-0-------0--|------------| |
B|-----0---0-|-----3----3-|-----1----1-|-1--3-0-----| |
G|----0------|----2-------|----2-------|------------| |
D|-----------|-0----------|------------|------------| |
A|-2---------|------------|-0----------|-0--0-0-----| |
E|-----------|------------|------------|------------| |||
C Cmaj7 C/D C ||
Y necesito de tablar tu amor ||
e|-----------|------------|-0-------0--|-0-------0--| |
B|-1------1--|-0-------0--|------3-----|-----1------| |
G|-----0---0-|-----0----0-|-----0----0-|----0-----0-| |
D|----2------|----2-------|------------|------------| |A|-3---------|-3----------|-3----------|-3----------| |
E|-----------|------------|------------|------------| |
||
G Dm Am ||
Para hacerme a ella en mi tempestad ||
e|-3------3--|-1-------1--|-0-------0--|-0-------0--| |
B|-----0---0-|------3---3-|-----1----1-|-----1----1-| |G|----0------|-----2------|----2-------|----2-------| |
D|-----------|-0----------|------------|------------| |
A|-2---------|------------|-0----------|-0----------| |
E|-----------|------------|------------|------------| |
||
D/F# G° Am ||
pensando en ti ||...
tracking img