Ixer

Solo disponible en BuenasTareas
  • Páginas : 3 (738 palabras )
  • Descarga(s) : 4
  • Publicado : 13 de junio de 2010
Leer documento completo
Vista previa del texto
El hombre del piano

1|-0h1--si-->3--------------3----1--------0h1-Po-0---|
2|-------------------------------------------------1-|

1|---------1--0---------|
2|-0-Po-1---------3---1-|1|-------------------|-------|--------|-------------------|-------|
2|-----1---------1---|-6-5-3-|----1---|-----1---------1---|-6-5-3-|3|---0---0-----0---0-|-5-4-2-|--0---0-|---0---0-----0---0-|-5-4-2-|
4|-------------------|-7-5-3-|--------|-------------------|-7-5-3-|
5|-0---------2-------|-------|-3------|-0---------2-------|-------|6|-------------------|-------|--------|-------------------|-------|

VOZ 1ª PARTE RIFF 1ª PARTE

C C/B Am Am/G
1|-------------------|-----------------------|-0--------|-----------|2|-1-----------1-----|-3--------------3------|--------1-|-----1---1-|
3|--------0----------|----------0------------|------2---|---0---0---|4|-------------------|-----------------------|----------|-----------|
5|-3-----------------|-2---------------------|-0--------|-----------|
6|-------------------|-----------------------|----------|-3---------|
Esta es la historia de unsábado,

FMaj7 C D7 G
1|----------|----------------|---------|---------------|
2|-------1--|------------1---|-------1-|---------------|3|----2-----|----------------|-----2---|----------0----|
4|-3--------|-------0--------|--0------|----0H2--------|
5|----------|----------------|---------|---------------|6|----------|----3-----------|---------|-3-------------|
Que importa cuál mes, y de un

C C/B Am Am/G
1|--------------|------------------|---0------|------------------|2|-1--------1---|----3--------3----|-------1--|-------1---1------|
3|----0---------|---------0--------|-----2—---|-----0---0--------|
4|--------------|------------------|----------|------------------|...
tracking img