Lopi

Solo disponible en BuenasTareas
  • Páginas : 5 (1010 palabras )
  • Descarga(s) : 0
  • Publicado : 7 de marzo de 2012
Leer documento completo
Vista previa del texto
C C7M C2 C
e:-----------------|-----------------|-----------------|-----------------|
B:-1---------1-----|-0---------0-----|-3---------0-----|-1---------1-----|
G:-------0-------0-|-------0-------0-|-------0-------0-|-------0-------0-|D:-----2-------2---|-----2-------2---|-----2-------2---|-----2-------2---|
A:-3-------3-------|-3-------3-------|-3-------3-------|-3-------3-------|
E:-----------------|-----------------|-----------------|-----------------|


Am2 Am4 Am Am2e:-----------------|-----------------|-----------------|-----------------|
B:-0---------0-----|-3---------3-----|-1---------1-----|-0---------0-----|
G:-------2-------2-|-------2-------2-|-------2-------2-|-------2-------2-|
D:-----2-------2---|-----2-------2---|-----2-------2---|-----2-------2---|A:-0-------0-------|-0-------0-------|-0-------0-------|-0-------0-------|
E:-----------------|-----------------|-----------------|-----------------|



C2 C C7M Ce:-----------------|-----------------|-----------------|-----------------|
B:-3---------3-----|-1---------1-----|-0---------0-----|-3---------3-----|
G:-------0-------0-|-------0-------0-|-------0-------0-|-------0-------0-|
D:-----2-------2---|-----2-------2---|-----2-------2---|-----2-------2---|A:-3-------3-------|-3-------3-------|-3-------3-------|-3-------3-------|
E:-----------------|-----------------|-----------------|-----------------|



Am Am2 Am4 Am
e:-----------------|-----------------|-----------------|-----------------|B:-1---------1-----|-0---------0-----|-3---------3-----|-1-----------0---|
G:-------2-------2-|-------2-------2-|-------2-------2-|-------2-2-------|
D:-----2-------2---|-----2-------2---|-----2-------2---|-----2-----------|
A:-0-------0-------|-0-------0-------|-0-------0-------|-0-------0---2---|E:-----------------|-----------------|-----------------|-----------------|



C G/B Am Am
e:-----------------|-----------------|-----------------|-----------------|
B:-1---------1-----|-3---------3-----|-1---------1-----|-1---------1-----|G:-------0-------0-|-------0-------0-|-------2-------2-|-------2-------2-|
D:-----2-------2---|-----0-------0---|-----2-------2---|-----2-------2---|
A:-3-------3-------|-2-------2-------|-0-------0-------|-0-------0-------|
E:-----------------|-----------------|-----------------|-----------------|G Dm Am Am
e:-----------------|-1---------1-----|-0---------------|-0---------------|
B:-3---------3-----|-------3-------3-|-1---------1-----|-1-----------0---|
G:-------0-------0-|-----2-------2---|-------2-------2-|-------2-2-------|...
tracking img