los p. v

Solo disponible en BuenasTareas
  • Páginas : 4 (801 palabras )
  • Descarga(s) : 0
  • Publicado : 16 de febrero de 2014
Leer documento completo
Vista previa del texto
e|-------------4-5-7-5-4---5-4-5-4----|-------------|
B|-5-6-5-3-5-6-----------6---------6-5|-------------|
G|------------------------------------|-------------|D|------------------------------------|---7-7-6-7---|
A|------------------------------------|-7---------7-|
E|------------------------------------|-------------|


Am
No sé qué tienen tus ojos
G
no sé quetiene tu boca
F
que domina mis antojos
E
y a mi sangre vuelve loca.

Am
No sé cómo fui a quererte
G
ni como te fui adorandoF
me siento morir mil veces
E
cuando no te estoy amando.

Dm
De noche cuando me acuesto
Am E Am
a dios le pido olvidarteG
y al amanecer despierto
F E
tan solo para adorarte.

Dm
Que influencia tienen tus labios
Am E Am
que cuando me besan tiembloG
y hacen que me sienta esclavo
F E
y amo del universo.


Am G

x12 x12 x8 x4 x11
e|--------------------------------------|B|---10-12-13-12-10----10-12-13-10-12-8-|
G|-9------------------9-----------------|
D|--------------------------------------|
A|--------------------------------------|E|--------------------------------------|


F E
e|------------------------------------------------------|
B|--6s8-10-12-8-8s10-6-----4s6-6-6-8s10-10-10-7s9-6-7s9-|G|-7----------------------5-----------------------------|
D|------------------------------------------------------|
A|------------------------------------------------------|E|------------------------------------------------------|



Dm
De noche cuando me acuesto
Am E Am
a dios le pido olvidarte
G
y al amanecer despierto
F E
tan solo para...