Luz del dia

Solo disponible en BuenasTareas
  • Páginas : 12 (2813 palabras )
  • Descarga(s) : 0
  • Publicado : 21 de junio de 2011
Leer documento completo
Vista previa del texto
Luz de Día
INTRO Y SOLO

Am G
G-|-----------|--5-2-------|------------|--4-0-------|
D-|-----------|------------|------------|------------|
A-|-----------|------------|----5-------|------------|
E-|--5-0------|------------|--3---------|------------|F C G
G-|-----2-----|-----5------|------------|------------|
D-|--3-----2--|--3-----3---|------------|------------|
A-|-----------|------------|--3--3--3s7-|-------5----|
E-|-----------|------------|------------|--3-------3-|VERSOS

Am G
G-|-----------|------------|------------|------------|
D-|-----------|------------|------------|------------|
A-|-----------|------------|----5-------|----5-------|
E-|--5-0------|--5-0-------|--3---------|--3---------|F C G
G-|-----2-----|-----5------|------------|------------|
D-|--3-----2--|--3-----3---|------------|------------|
A-|-----------|------------|--3--3--3s7-|-------5----|
E-|-----------|------------|------------|--3-------3-|


COROS(se repite "n" veces)

C G Am F
G-|-----------|------------|------------|------------|
D-|-----------|------------|------------|--3-----3---|
A-|--3-----3--|-----5------|-----7------|-----3------|
E-|-----3-----|--3-----3---|--5-----5---|------------|G----------------------------------------------------------------------
D-------------------------------0-----3--------------0/h2--0----------- Intro y solo
A----0-----3-----------5--2--------0-----3-----3--------------2--------
E-------0-----5/s0--3--------3--------------3-----3--------------3-----G----------------------------------------------------------------------
D----------------------------0-----0--3-----2/h3--2-----0/h2--0-------- 1er. y 3er. verso
A----0-----0--------5-----5-----0--------3-----------3-----------2-----
E-------0-----0--3-----3--------------------------------------------3--

G----------------------------------------------------------------------D----------------------------0-----0--3--2/s5-------------------------- 2do. y 4to verso
A----0-----0--------5-----5-----0--------------3-----3--2--------------
E-------0-----0--3-----3--------------------------3--------3--3--------

G----------------------------------------------------------------------
D-------------------------2-------------------------------------------- Coro (varias veces)A----3-----3-----5-----0-----0-----3-----------------------------------
E-------3-----3-----3-----------1-----1--------------------------------

El crucifijo

Dm A#
Yo soy solo una piedra
Gm A#
clavada entre la tierra
Dm A#
soñando con que escarves
Gm A#
y alguna vez me veas.

Dm A#
No soy mas que la sombra
Gm A#
del polvo sobre el suelo
Dm A#
el ojo de la hormiga
Gm A#...
tracking img