Mago de oz

Solo disponible en BuenasTareas
  • Páginas : 8 (1977 palabras )
  • Descarga(s) : 0
  • Publicado : 29 de mayo de 2011
Leer documento completo
Vista previa del texto
Fiesta pagana
Rasguear una sola vez en este orden: (Guitarra acustica)
Sim – Sim – LA – RE

Ahora rasguear varias veces: (Guitarra acustica)
Sim – Sim – LA – LA – Sim – Sim – LA – RE


Ahora con distorcion:

SI5LA5
1|-----------------------------------------------------------------|
2|-----------------------------------------------------------------|
3|-----------------------------------------------------------------|
4|-----------------------------------------------------------------|5|-9---9---9---9---9---9---9---9---7---7---7---7---7---7---7---7---|
6|-7-7-7-7-7-7-7-7-7-7-7-7-7-7-7---5-5-5-5-5-5-5-5-5-5-5-5-5-5-5---|

SI5 LA5 RE5
1|-----------------------------------------------------------------|2|-----------------------------------------------------------------|
3|-----------------------------------------------------------------|
4|-------------------------------------------------7---7---7---7---|
5|-9---9---9---9---9---9---9---9---7---7---7---7---5-5-5-5-5-5-5---|
6|-7-7-7-7-7-7-7-7-7-7-7-7-7-7-7---5-5-5-5-5-5-5-------------------|SI5 LA5
1|---------------------------------------|
2|---------------------------------------|
3|---------------------------------------|
4|---------------------------------------|
5|-------------------------------9---7---|
6|-7-7-7-7-7-7-7-7-7-7-7-7-7-7---7---5---|----------p.m--------------

Cuando despiertes un dia y sientas que no puedes mas
SI5 FA#5 MI5 FA#5
1|--------------------------------------------------------|
2|--------------------------------------------------------|3|--------------------------------------------------------|
4|--------------11---11--------9---9---------11---11------|
5|-9---9---------9-9—-9--------7-7-7----------9-9—-9------|
6|-7-7-7--------------------------------------------------|

Que en el nombre del de arriba tu vida van a manejar
SI5 FA#5MI5 FA#5
1|------------------------------------------------------------|
2|------------------------------------------------------------|
3|------------------------------------------------------------|
4|------------------11---11----------9---9----------11--------|5|-9---9-------------9-9—-9----------7-7-7-----------9--------|
6|-7-7-7------------------------------------------------------|

Si sientes que el miedo se apega a tu piel
Por ser comunero y justicia querer
RE5 LA5 LA5 SI5
1|------------------------------------------------------|2|------------------------------------------------------|
3|------------------------------------------------------|
4|-7----------------------------------------------------|
5|-5-5-5-5-5---7-----------7----------------9-----------|
6|-------------5-5-5-5-5---5-5-5-5-5--------7-7-7-7-7---|
--p.m--...
tracking img