Musica y mas

Solo disponible en BuenasTareas
  • Páginas : 8 (1962 palabras )
  • Descarga(s) : 0
  • Publicado : 16 de enero de 2012
Leer documento completo
Vista previa del texto
Guitar I&II
e:-------------------------------------------------------------------------------------------| ___
B:-------------------------------------------------------------------------------------------| \
G:-------------------------------------------------------------------------------------------| \D:4-4--4-4--2-(2)----------------------------4-4--4-4--2-(2)---------------------------------| ¦
A:4-4--4-4--2-(2)----------------------------4-4--4-4--2-(2)---------------------------------| ¦
E:2-2--2-2--0-(0)----------------------------2-2--2-2--0-(0)---------------------------------| ¦¦
¦
¦¦X4
¦
This Is Really Bass Guitar But Heres How To Do It On Guitar ¦e:-------------------------------------------------------------------------------------------| ¦
B:-------------------------------------------------------------------------------------------| ¦
G:-------------------------------------------------------------------------------------------| /
D:-------------/12-11-10-9-(9)/12------12-----------------/12-11-10-9-(9)/12------12---------|___/
A:--------------------------------10-9---------------------------------------10-9------------|
E:----------------------------------------10-9-(9)----------------------------------10-9-(9)-|





e:-------------|
B:-------------|G:-------------| X4
D:-4--4--2-(2)-|
A:-4--4--2-(2)-|
E:-2--2--0-(0)-|



Then:

e:------|
B:------|
G:------|
D:-4--4-|
A:-4--4-|E:-2--2-|


e:------------------------------------|
B:------------------------------------|
G:------------------------------------|
D:-2-5-4-3--2-5-4-3--2-5-4-3--2-5-4-5-| X3
A:-2-5-4-3--2-5-4-3--2-5-4-3--2-5-4-7-|
E:-0-3-2-1--0-3-2-1--0-3-2-1--0-3-2-7-|PM. . . . . . . . . . . . . . . .



e:---------------|
B:---------------|
G:---------------|
D:-2-5-4-3-2-(2)-|
A:-2-5-4-3-2-(2)-|
E:-0-3-2-1-0-(0)-|
PM. . . .Guitar I (James)
e:-----------------------------------------------------------------|
B:-----------------------------------------------------------------|
G:-----------------------------------------------------------------|
D:-2-(2)-----------------------------------------------------------|...
tracking img