Musica

Solo disponible en BuenasTareas
  • Páginas : 3 (667 palabras )
  • Descarga(s) : 0
  • Publicado : 9 de septiembre de 2012
Leer documento completo
Vista previa del texto
placer y dolor

especimen

TRANSCRIBED BY RUDY GUZMAN

guzman_84@hotmail.com

e:---------------------------------------|
B:---------------------------------------|G:-7--5-5-5--10-10-10--9-9-9--10-10--9-9-|
D:-0--0-0-0--0--0--0---0-0-0--0--0---0-0-|
A:---------------------------------------|
E:---------------------------------------|

pick slide
e:-----------|
B:-----------|G:-----------|
D:-----------|
A:-x/--------|
E:-x/--------|

e:-------------------------|
B:-------------------------|
G:-------------------------|
D:-7-7-7-5-7-7-3-3-3-5-5-5-|A:-5-5-5-3-5-5-1-1-1-3-3-3-|
E:-------------------------|

:----------------------------------------------|
:----------------------------------------------|
:----------------------------------------------|:-7-7-7-7-7--10-10-10-10-10--5-5-5-5-5--10-9-7-|
:-5-5-5-5-5--8--8--8--8--8---3-3-3-3-3--8--7-5-|
:----------------------------------------------|

e:-------------------------|B:-------------------------|
G:-------------------------|
D:-7-7-7-5-7-7-3-3-3-5-5-5-|
A:-5-5-5-3-5-5-1-1-1-3-3-3-|
E:-------------------------|

e:--------------------------|
B:--------------------------|G:--------------------------|
D:-7-7-7-5-7-7-3-3-3-10-9-7-|
A:-5-5-5-3-5-5-1-1-1-8--7-5-|
E:--------------------------|

:----------------------------------------------|:----------------------------------------------|
:----------------------------------------------|
:-7-7-7-7-7--10-10-10-10-10--5-5-5-5-5--10-9-7-|
:-5-5-5-5-5--8--8--8--8--8---3-3-3-3-3--8--7-5-|:----------------------------------------------|

e:-------------------------|
B:-------------------------|
G:-------------------------|
D:-7-7-7-5-7-7-3-3-3-5-5-5-|
A:-5-5-5-3-5-5-1-1-1-3-3-3-|E:-------------------------|

e:--------------------------|
B:--------------------------|
G:--------------------------|
D:-7-7-7-5-7-7-3-3-3-10-9-7-|
A:-5-5-5-3-5-5-1-1-1-8--7-5-|
E:--------------------------|...
tracking img