Notas

Solo disponible en BuenasTareas
  • Páginas : 3 (587 palabras )
  • Descarga(s) : 12
  • Publicado : 22 de julio de 2010
Leer documento completo
Vista previa del texto
[pic]

Los acordes del intro son:

G - D - Em - Bm - C

Guitarra 1 – Paso 1.

E|---------|---------|-------3-----3-2-------------|
B|---------|---------|---5-----0-------0---3-3/5-5-|G|-0-2-2/4-|-4-5-5/7-|-7---7-----0-------0---------|
D|---------|---------|-----------------------------|
A|---------|---------|-----------------------------|E|---------|---------|-----------------------------|

Guitarra 2 – Paso 1.

E|-------3-----3-5-3-2-5-3-2-3-----3-2-------------|
B|---------0-------------------0-------0---3-3/5-5-|
G|-----------0-------------------0-------0---------|D|-------------------------------------------------|
A|-------------------------------------------------|
E|-------------------------------------------------|

Guitarra 1 – Paso 2.E|---------------------------2-----2-|---------------------|
B|-5-3/5/3---0-----3-1/3/1-----3-----|---------------------|
G|---------5---0-----------2-----2---|-0-0-2-4-2-0---------|D|---------------0-------------------|-------------4/5/4-2-|
A|-----------------------------------|---------------------|
E|-----------------------------------|---------------------|

Guitarra 2 – Paso 2.E|-------3-----3-5-3-2-5-3-2-3-2-0---------|
B|---------0-----------------------3-3/5-5-|
G|-----------0-----------------------------|
D|-----------------------------------------|A|-----------------------------------------|
E|-----------------------------------------|

G D Em Bm C
A pesar de que la luna no brille mañana
G D
me dará igual pues sóloverte reír
Em Bm C
es lo que me hace feliz, mi alma…

G D
Y es verdad que una mirada distinta
Em Bm C G
o algúngesto más frío se clava en mi pecho,
D Em Bm C
daga del desconcierto pero amor, ahí está la magia.

C D
Ahora que te veo niña ya te echo...
tracking img