Random

Solo disponible en BuenasTareas
  • Páginas : 9 (2138 palabras )
  • Descarga(s) : 7
  • Publicado : 20 de julio de 2010
Leer documento completo
Vista previa del texto
My sharona

[riff]

G octaves C Bb C Bb
E +-------------------x---x----------------+
B |-------------------5---3----------------|
G |-------------------5---3----------------|
D |--55-5-5--5---55-5-5---3----------------|
A|-------------------3---x----------------|
E +33--3-3-33--33--3--x---x----------------+



Im not okay


This was a really fun song to tab out. I hope you enjoy it. There are some good tabs
on this one, but I thought I would put my two centsin. Most are very acurate save the
verse. I broke up everything into messures so that you can understand what is going on
with the fist and second guitars. I know it's kind of jumbled but just follow the tab
through the song.
transcribed by Jeff Perrin


. - palmmute
X - note mute
^ - bend
* - bend 1/2
/ - slide up
\ - slide down
f - feedback
= - pick scrape
| - end of messure
[ - begining of rift
] - end ofrift

Intro (0.00)
(guitar 1)
[-------------------------]
[-------------------------]
[-7--7--7--7--7--7--7--7--]x4
[-X--X--X--X--X--X--X--X--]
[-5--5--5--5--5--5--5--5--]
[-------------------------]
(guitar 2)comes in when the drums do
[-------------------------|-------------------------]
[-------------------------|-------------------------]
[-------------------------|-7--7--7--7----7----7----]
[-7--7--7--7--7--7--7--7--|-7--7--7--7----7----7----]
[-5--5--5--5--5--5--5--5--|-5--5--5--5----5----5----][-------------------------|-------------------------]
. . . . . . . . . . . .

Chorus (0:05, 0:48, 1:31, 2:40)
(guitar 1)
[-------------------------|-------------------------|------------------------|[-15-15-15-15-15-15-15-15-|-10-10-10-10-10-10-10-10-|-8--8--8--8--8--8--8--8-|
[-X--X--X--X--X--X--X--X--|-X--X--X--X--X--X--X--X--|-X--X--X--X--X--X--X--X-|
[-12-12-12-12-12-12-12-12-|-7--7--7--7--7--7--7--7--|-5--5--5--5--5--5--5--5-|
[-------------------------|-------------------------|------------------------|
[-------------------------|-------------------------|------------------------|(guitar 2)
[-------------------------|-------------------------|------------------------|
[-------------------------|-------------------------|------------------------|
[-7--7--7--7--7--7--7--7--|-6--6--6--6--6--6--6--6--|-9--9--9--9--9--9--9--9-|[-7--7--7--7--7--7--7--7--|-7--7--7--7--7--7--7--7--|-7--7--7--7--7--7--7--7-|
[-5--5--5--5--5--5--5--5--|-5--5--5--5--5--5--5--5--|-5--5--5--5--5--5--5--5-|
[-------------------------|-------------------------|------------------------|
chorus continued (guitar 1)
|-------------------------]
|-7--7--7--7--7--7--7--7--]
|-X--X--X--X--X--X--X--X--]x2...
tracking img