Rock&roll

Solo disponible en BuenasTareas
  • Páginas : 27 (6536 palabras )
  • Descarga(s) : 0
  • Publicado : 29 de mayo de 2011
Leer documento completo
Vista previa del texto
HAVE A CIGAR
Pink Floyd
(Waters)
They say to use a flanger here.

|----------------------------------------------------------------------------|
|--------------------------5-----14\--------5--------------------------------|
|----7-------7-----5--5h7--------------5h7--------7-----5-----5h7-----(0)--7-||-12\------3/-----------------12\--------------------------------------------|

|-9-----9--------------------------------------------------9-----(9)--7-------|
|--------------------------------------5--5------------------------------9--8-|
|----------7-------7----------5-----7--------7-------5------------------------|
|----------------3/------5h7-----------------------3/-------------------------||---------------------------------------------------------------------------|
|-7--5------------------------------------5---------------------------------|
|----------7-------7-----7--5h7--7-----7-----5h7-----7----------------------|
|----------------3/-----------------0-------------------------0-----2-----3-|

|------------------------------------------------------------------------------||------------------------------------------------------------------------------|
|-3----------3-----1-----1h3-----3--3--------1h3-----3-----3-------------------|
|-------1h3----------------------------3-------------------------3-----2-----0-|

|----------9--9\---7-----------------------------------------------------||---------------7-----5--------------------------------------------------|
|-5--7----------------------7-------7-----------------------3----------3-|
|---------------------------------3/------0-----2-----3-----------1h3----|

|--------------------------------------------------------------------------5-|
|-----------------------------------------------------------------------7----||-1-----1h3-----3--3--------------1h3-----1--3-----0--3-----5-----0--5-------|
|---------------------3-----3------------------------------------------------|

|----------------------------------------------------------7--(7)h9------------|
|-5-----4------------------------------------------------5/--------------------|
|-----------7-----(7)--5-----4-----3--4--5--6-----7--7\------------x--7\0--0-||------------------------------------------------------------------------------|

1st verse (come in here..)
|----------------------------------------------------------------------------|
|--------------------------------5--------------------------------------5----|
|-7--7-----7-------7-----5--5h7-----7-----5------7-------7-----5--7--------7-||----------------3/------------------------------------3/--------------------|

|----------------------7h9--9------------------------------------------------|
|-5------------------------------------5-----------5--5-----------5--9-------|
|----7--5--7-----0--7-------------5h7--------7--------------7-----------7--5-|
|----------------------------------------------------------------------------||--------------------------------------------------------------9\7h9--7h9-|
|--------------------------------5-----5--5--------------5--9-------------|
|-3-----(3)h5-----7-----7-----------7--------5-----7----------------------|
|--------------------------0----------------------------------------------|

|-9--------------------------------------------------------------------||-----------------------------------------------5-----5--5-------------|
|-------5--7-----------7--------5h7-----5--5h7-----7--------7--------3-|
|----------------------------------------------------------------------|

and did we..
|----------------------------------------------------------------------------|
|------------------------5---------------------------------------------------|...
tracking img