Tablatura de eres todo poderoso de danilo montero

Solo disponible en BuenasTareas
  • Páginas : 2 (328 palabras )
  • Descarga(s) : 0
  • Publicado : 21 de enero de 2012
Leer documento completo
Vista previa del texto
e ----------------------10-9----10-9---10-9-10-9----10-9----10-9-----|
b ---------------------------10-----10----------10-------10----------|
g--7--9--11--7--9--11-----------------------------------------------|
d -------------------------------------------------------------------|
a-------------------------------------------------------------------|
E--------------------------------------------------------------------|e ----------------------10-9---10-9---10-9-10-9---10-9---10-9------|
b ---------------------------10-----10----------10-----10-----10/12|g --7--9--11--7--9--11---------------------------------------------|
d -----------------------------------------------------------------|
a-----------------------------------------------------------------|
E -----------------------------------------------------------------|
[ Tab from:http://www.guitaretab.com/r/rojo/197648.html ]
verso
e ----2-2----3-3----2-2----0-0----2-2----3-3----2-2----0-0--------|
b----3-3----3-3----3-3----2-2----3-3----3-3----3-3----2-2--------|
g ----4-4----0-0----2-2----2-2----4-4----0-0----2-2----2-2--------|
d ----4-4----0-0----0-0----2-2----4-4----0-0----0-0----2-2--------|a ----2-2----2-2-----------0-0----2-2----2-2-----------0-0--------|
E -----------3-3-------------------------3-3----------------------|e ----2--2----3--3----2--2----0--0----2--2----3--3----2--2----0-0-0-0-
b ----3--3----3--3----3--3----2--2----3--3----3--3----3--3----2-2-2-2-
g...
tracking img