Tablaturas de canciones

Solo disponible en BuenasTareas
  • Páginas : 8 (1971 palabras )
  • Descarga(s) : 0
  • Publicado : 11 de mayo de 2011
Leer documento completo
Vista previa del texto
Artist: Arctic Monkeys
Song: Leave Before The Lights Come On


Leave Before The Lights Come On (Single)
Arctic Monkeys


(intro) C Em Dm
.::INTRO::.
E|-----------------------------------------------------|B|------------10-8---8-------8--------------8----------|
G|--9-9-9-9-9------9---9-------9-7-9-7--------9-7-9-7--|
D|-----------------------7-7------------7-7------------|
A|-----------------------------------------------------|
E|-----------------------------------------------------|C Em Dm
Well this is a good idea he wouldn't do it if it wasn't
He wouldn't do it if it wasn't one.
C Em Dm
Well my friend fancies you, oh what a way to begin it all
You said it's always exciting words to hearEm Dm
And we woke up together not quite realising how
Em Dm
Oh when your stretching and yawning, its always hard in the morning
Em Dm
And I suppose that's the price youpay
Em Dm
Oh it isn't what it was, she's thinking he looks different today
and oh there's nothing left to guess now.

(solo) C Em Dm
E|---------|
B|---------|
G|---------| x4
D|--5------|A|3---3-3-3|
E|---------|

E|------------------------------------------------| |----------|
B|------------------------------------------------| |----------|
G|--------------------------4-----------4---------| |----------| x4
D|--2-5---2-----2-5-------2---5-------2---5-------||----5-----|
A|3-----------3-----------------------------------| |5-7----7--|
E|------------------------------------------------| |----------|


C Em Dm
You left before the lights came on because you didn't want to ruin
All thelust that was brewing before he absolutely had to
C Em Dm
And how can you wake up with someone you don't love?
And not feel slightly fazed by it oh, he had a struggle

Em Dm
And you woke up together not quiterealising how
Em Dm
Oh but he's stretching and yawning it's always hard in the morning


Em Dm
And I suppose that's the price you pay
Em DmOh it isn't what it was, she's thinking he looks different today
and oh there's nothing left to guess now.


C Am
Quick let's leave before the lights come on
Dm Am
Cos then you don't have to see...
tracking img