Tarea

Solo disponible en BuenasTareas
  • Páginas : 9 (2094 palabras )
  • Descarga(s) : 4
  • Publicado : 17 de noviembre de 2009
Leer documento completo
Vista previa del texto
Europa / Santaana

Balada lenta

Bb7sus4 Bb7 Ebmaj7
~~~~~~~~~~~~~~ ~~~~~~~~~~~~~~~~~~~~
|---8-10-10h11-10--8----|----------------|------8-8h10-8---------|----------------------|
|-8------------------11-|-8h9------------|-9-11-----------11-----|----------------------||-----------------------|----------------|---------------------10/12--------------------|
|-----------------------|----------------|-----------------------|----------------------|
|-----------------------|----------------|-----------------------|----------------------|
|-----------------------|----------------|-----------------------|----------------------|

Abmaj7 G7sus4G7 Cm
~~~~~~~ ~~~~
|-----------------------|---------------|----------------------|------------------------|
|-8-9-11-11/13-11--9-8--|----9----------|----8-9-9h11-9-8------|------------------------|
|----------------------8/10----8-10-----|-10--------------10-8-|--10p8------------------||-----------------------|---------------|----------------------|------10-8--------------|
|-----------------------|---------------|----------------------|----------108-6-8/10-6-|
|-----------------------|---------------|----------------------|-----------------------8|

Bb7sus4 Bb7 Ebmaj7
~~~~~~~~~~~~~~~~~~~~~~~~~~~~~~~~
|-8----8-10-10h11-10--8----|-------------|------8-8h10-8--------|-----------------------|
|-8--8------------------11-|-8h9---------|-9-11-----------11----|-----------------------|
|-8------------------------|-------------|--------------------10/12---------------------|
|--------------------------|-------------|----------------------|-----------------------||--------------------------|-------------|----------------------|-----------------------|
|--------------------------|-------------|----------------------|-----------------------|

Abmaj7 G7sus4 G7 Cmaj7
~~~~~ ~~~~~~~~~~~~~~|--------------------------|-------------|-----------------------------|----------------|
|-8-9-11-11/13-11--9-8-----|-------------|--------8-9-9h11--9-8h9p8----|----------------|
|----------------------8/10|(10)-8-10----|(10)-10--------------------10/12--------------|
|--------------------------|-------------|-----------------------------|----------------||--------------------------|-------------|-----------------------------|----------------|
|--------------------------|-------------|-----------------------------|----------------|

Fm7 Bb7 Ebmaj7
|----------------|
|----------13b-|-13b----------|(13)-13r-11-13/16--------|10-13-13p11-13b----13-11-13p11-|
|------13------|--------------|-----------------------11|-------------------------------||--12----------|--------------|---------------------12--|-------------------------------|
|--------------|--------------|-------------------------|-------------------------------|
|--------------|--------------|-------------------------|-------------------------------|
|--------------|--------------|-------------------------|-------------------------------|

Abmaj7G7sus4 G7
|(11)h13----13b-13b-13b-13br--11---|-13p11p10h11p10-----------|-11b-11p8----------------|
|-------------------------------13-|--------------------------|----------11-8-----------|
|----------------------------------|----------------12p10p87-|---------------10br-8----|
|----------------------------------|--------------------------|----------------------10-|...
tracking img