Violencia en el noviazgo

Solo disponible en BuenasTareas
  • Páginas : 12 (2798 palabras )
  • Descarga(s) : 0
  • Publicado : 3 de septiembre de 2012
Leer documento completo
Vista previa del texto
Metallica
Hit the ligths
Guitar 1

E||------------------|----------------------|------------|------------------|
B||------------------|----------------------|------------|------------------|
G||------------------|----------------------|------------|------------------|
D||--2---------------|--2----2----2----2----|--2----2----|--2---------------|A||--2---------------|--2----2----2----2----|--2----2----|--2---------------|
E||--0---------------|--0----0----0----0----|--0----0----|--0---------------|
//

|------------------|-----------------|------------------|
|------------------|-----------------|------------------|
|------------------|-----------------|------------------|
|------------------|-----------------|------------------||--4---------------|-----------------|--x\--------------|
|--2---------------|-----------------|--x\--------------|
//

|-----------------------------|-------------------------------|
|-----------------------------|-------------------------------|
|-----------------5--7-7---0--|-------------------------------|
|--5--------------5--7-7---0--|--5--------------7p5---5-------||--0--0-0-0-0-0-0-------------|--0--0-0-0-0-0-0-----7----6-7--|
|-----------------------------|-------------------------------|

|------------------------------|----------------------------|
|------------------------------|----------------------------|
|-----------------5--7-7--0-0--|--5-------------------7b----|
|--5--------------5--7-7--0-0--|--5-------------------------|
|--0--0-0-0-0-0-0--------------|-----0-0-0-0-0-0-6h7--------||------------------------------|----------------------------
|-----------------------------|-------------------------------|
|-----------------------------|-------------------------------|
|-----------------5--7-7---0--|--5----------------------------|
|--5--------------5--7-7---0--|--5--------------7p5---5-------|
|--0--0-0-0-0-0-0-------------|-----0-0-0-0-0-0-----7----6-7--||-----------------------------|-------------------------------|

|------------------------------|----------------------------------|
|------------------------------|----------------------------------|
|-----------------5--7-7--0-0--|-----------------------------<5>--|
|--5--------------5--7-7--0-0--|--5----------------<5>---<5>------||--0--0-0-0-0-0-0--------------|--0--0-0-0-0-0-<5>----------------|
|------------------------------|----------------------------------|

|------------------------------|-------------------------------|
|------------------------------|-------------------------------|
|-----------------5--7-7--0-0--|-------------------------------|
|--5--------------5--7-7--0-0--|--5--------------7p5---5-------||--0--0-0-0-0-0-0--------------|--0--0-0-0-0-0-0-----7----6-7--|
|------------------------------|-------------------------------|

|------------------------------|-------------------------------|
|------------------------------|-------------------------------|
|-----------------5--7-7--0-0--|--5----------------------------|
|--5--------------5--7-7--0-0--|--5--------------7p5---5-------||--0--0-0-0-0-0-0--------------|-----0-0-0-0-0-0-----7----6-7--|
|------------------------------|-------------------------------|

Verses
|----------------------|-----------------------|------------------------------|
|----------------------|-----------------------|------------------------------|
|--7--7----------------|--7--7-----------------|-----------------5--7-7--0-0--||--7--7------5--5------|--7--7-----------------|--5--------------5--7-7--0-0--|
|--5--5------5--5------|--5--5------3---2------|--0--0-0-0-0-0-0--------------|
|------------3--3------|--------------------3--|------------------------------|
No life till leather...

|-------------------------------|------------------------------|
|-------------------------------|------------------------------|
|-------------------------------|-----------------5--7-7--0-0--|...
tracking img