Waking the demon - tablaturas

Solo disponible en BuenasTareas
  • Páginas : 2 (308 palabras )
  • Descarga(s) : 0
  • Publicado : 15 de enero de 2012
Leer documento completo
Vista previa del texto
Waking the Demon - Bullet for My Valentine

Intro

Guitar 1
D|-------------------------------------------------------------------|A|-------------------------------------------------------------------|
F|-------------------------------------------------------------------|
C|-------------------------------------------------------------------|G|----------5p4-----7p4----------------------5p4-----7p4-------------|
C|--4-4-4-4-----4-4-----4-4-5p4h7p4--4-4-4-4-----4-4-----4-4-5---7---|
PM . . . . . . . . . . . . . . . .

Guitar 2 (Don't let ring)D|-------------------------------------------------------------------|
A|-------------------------------------------------------------------|F|-------------------------------------------------------------------|
C|--4--------------------------------4-----------------------5---7---|
G|--4--------------------------------4-----------------------5---7---|C|--4--------------------------------4-----------------------5---7---|

Guitar 1
D|-------------------------------------------------------------------|
A|-------------------------------------------------------------------|F|-------------------------------------------------------------------|
C|---------------------------------------------------7p4-5p4---------|
G|----------5p4-----7p4----------------------5p4-------------7p4-5p4-|C|--4-4-4-4-----4-4-----4-4-5p4h7p4--4-4-4-4-----4-4-----------------|
PM . . . . . . . . . . . . . .

Guitar 2 (Don't let ring)D|-------------------------------------------------------------------|
A|-------------------------------------------------------------------|
F|-------------------------------------------------------------------|C|--4--------------------------------4---------------4---------------|
G|--4--------------------------------4---------------4---------------|
C|--4--------------------------------4---------------4---------------|

Guitar 1...
tracking img