D* g -2---3-- -2-

Solo disponible en BuenasTareas
  • Páginas : 2 (434 palabras )
  • Descarga(s) : 12
  • Publicado : 26 de julio de 2010
Leer documento completo
Vista previa del texto
D* G
-2---3--
-2---3--
-2---4--
-0---5--
-x---5--
-x---3--

INTRO:

e-----------------------0------------
B-----2-------------------3-2---0----
G-------4------2-0----2-----------2--D---4--------0------0---------2------
A-2-------------------------0--------
E----------3-------------------------

e--------------------------------
B-----2-----------------0--------G-------4------2-0--------0-2----
D---4--------0--------2----------
A-2-----------------0------------
E----------3---------------------

D D* G D
Sabes no pido nada mas,que estar entre tus brazos
D* G F#m Em Bm
y huir de todo mal que a todo he renunciado
A
por estar junto a ti.

D D* G DD* G
Sabes no dejo de pensar, estoy enamorado te quiero confesar
F#m Em Bm A Bm
que soy solo un esclavo que no sabe vivir...sin ti.G D A Bm G D
Cuando llegaste tu te metiste en mi ser, encendiste la luz
A Em F#m G
me llenaste de fe, tanto tiempo busque pero alfin te
F#m Em D A Bm
encontre tan perfecta como te imagine, oo noo oo

Bm G D A Bm
Como aguja en un pajar, te busque sin cesarG D A Em
como huella en el mar, tan dificil de hayar
F#m G F#m Em
Tanto tiempo busque pero al fin te encontre,
D Atan perfecta aa aaa...como te imagine.

INTRO:

e-----------------------0------------
B-----2-------------------3-2---0----
G-------4------2-0----2-----------2--D---4--------0------0---------2------
A-2-------------------------0--------
E----------3-------------------------

e--------------------------------
B-----2-----------------0--------
G-------4------2-0--------0-2----...
tracking img