Dsadas

Solo disponible en BuenasTareas
  • Páginas : 5 (1075 palabras )
  • Descarga(s) : 0
  • Publicado : 23 de febrero de 2011
Leer documento completo
Vista previa del texto
ESTA TRADUCCION ESTA HECHA EN SU TOTALIDAD POR KRZTIAN DE TARINGA, SI LA BAJASTE DE OTRO LADO NO HAY PEDO, PERO QUE NO SEAN “HDP” Y QUE DE JODIDO ME DIGAN XD, ES BROMA PERO ENCERIO, SI LO QUIEREN PUBLICAR POR LO MENOS AVISAME, BUENO ESPERO Y LES SIRVA

Cada guitarrista tiene su propia técnica especial, que utilizan mucho en sus solos. La mayoría de la gente sabe que Kirk Hammett por su enormeuso de pedal wah. Pero no es sólo empujar el pedal wah y jugando algunos riffs extraños. Hay algunos riffs que Hammett uso mucho en sus solos, así que si te gustan su riffs y los solos de Metallica aquí es algunos riffs que te pueden ayudar.
Vamos a empezar a partir del kill ´em all, aunque algunos de ellos fueron compuestos por Dave Muastine pero Kirk también los usa.
Playing Scale:aquí es una escala que se puede escuchar mucho en Kill 'Em All, casi en la mayoría de las canciones de ese álbum, y también en otros álbumes. Esto no es muy difícil de tocar, pero lo más importante es tocar muy rápido y tener cuidado sobre el tiempo.

|-17-p14------14--17-p14------------------------------------------||---------17--------------17--14------14--17-p14------------------|
|---------------------------------16fb------------16--14------14--|
|---------------------------------------------------------16------|
|-----------------------------------------------------------------|
|-----------------------------------------------------------------||-----------------------------------------------------------------|
|-----------------------------------------------------------------|
|-16-p14----------------------------------------------------------|
|---------16--14------14--16-p14----------------------------------||-----------------16--------------16--14------14--16-p14----------|
|-----------------------------------------17--------------17--14--|

este material se toca en diferente escala, por ejemplo “Hit The Lights”Kiek toca el Outro solo en la misma escala.
|-22-p19------19--22-p19------------------------------------------||---------22--------------22--19------19--22-p19------------------|
|---------------------------------21fb------------21-and so on ...|
|-----------------------------------------------------------------|
|-----------------------------------------------------------------|
|-----------------------------------------------------------------|

Otro riff de los viejos la usan en "No Remorse", yalgunas otras canciones y también en escala diferente. Este riff es realmente simple.
|-17-p14------14--17-p14--19-p14--17-p14------14--17-p14--19-p14--|
|---------17------------------------------17----------------------|
|-----------------------------------------------------------------|
|-----------------------------------------------------------------||-----------------------------------------------------------------|
|-----------------------------------------------------------------|

o en “The Four Horsemen” es algo como esto:
|-15-p12------12--15-p12--15-p12------12--15-p12--15-p12------12--|
|---------15----------------------15----------------------15------|
|-----------------------------------------------------------------||-----------------------------------------------------------------|
|-----------------------------------------------------------------|
|-----------------------------------------------------------------|

Fast Hammer on and Pull off:

Pero si lo que quieres tocas es el solo de “Whiplash” exepto esos rapidos...
tracking img