El sonido de la vida

Solo disponible en BuenasTareas
  • Páginas : 2 (264 palabras )
  • Descarga(s) : 0
  • Publicado : 23 de noviembre de 2010
Leer documento completo
Vista previa del texto
Allright I love this song, and all the tabs i've read are either not correct or not
SOO I figured it out in full and correct. I'm just going to put down the mechanical part andthe video on youtube or where ever to get the feel and rhythm.

Tuning:(low to high)E B D F# B E

the higher 2 strings- you can hit them and let them ring out, i'm just not going to
them in. the only string that needs to be muted occasionally is the low e string with your thumb.Main Part
|-------------------|
|-------------------|
|o-----8b------8b--o|
|o-9-99---999-9----o||--0-00--0000-0-----|
|-------------------|

Chorus Type Part
|-------------------|
|------------12-10--||o-----8b----------o|
|o-9-99---99/12-11-o|
|--0-00---00--------|
|--0-00---00--------|

Verse 2?|-------------------|
|------------10-7---|
|o-----8b----------o|
|o-9-99---99-9--9--o|
|--0-00---00-0--0---||-------------------|

Variation
|----------------------|
|-------12-10----10-7--||o--------------------o|
|o-99-9-12-11-9--9--9-o|
|--00-0-0--0--0--0--0--|
|----------------------|

Bridge|-----------------------|
|--00-0-0-0-0-0-0-0-00--|
|o-00-0-0-0-0-0-0-0-00-o|
|o-44-7-4-2-4-2-0-2-00-o|
|--00-0-0-0-0-0-0-0-00--|...
tracking img